  0
SECTION
  2
HEADER
  9
$ACADVER
  1
AC1009
  9
$INSBASE
 10
0.0
 20
0.0
 30
0.0
  9
$EXTMIN
 10
0.3313683463181007
 20
0.75635853773111
 30
0.0
  9
$EXTMAX
 10
241.86108504018389
 20
179.54317761806359
 30
0.0
  9
$LIMMIN
 10
0.0
 20
0.0
  9
$LIMMAX
 10
240.0
 20
180.0
  9
$ORTHOMODE
 70
     0
  9
$REGENMODE
 70
     1
  9
$FILLMODE
 70
     1
  9
$QTEXTMODE
 70
     0
  9
$MIRRTEXT
 70
     1
  9
$DRAGMODE
 70
     2
  9
$LTSCALE
 40
1.0
  9
$OSMODE
 70
    37
  9
$ATTMODE
 70
     1
  9
$TEXTSIZE
 40
0.2
  9
$TRACEWID
 40
0.05
  9
$TEXTSTYLE
  7
STANDARD
  9
$CLAYER
  8
0
  9
$CELTYPE
  6
BYLAYER
  9
$CECOLOR
 62
   256
  9
$DIMSCALE
 40
1.0
  9
$DIMASZ
 40
0.18
  9
$DIMEXO
 40
0.0625
  9
$DIMDLI
 40
0.38
  9
$DIMRND
 40
0.0
  9
$DIMDLE
 40
0.0
  9
$DIMEXE
 40
0.18
  9
$DIMTP
 40
0.0
  9
$DIMTM
 40
0.0
  9
$DIMTXT
 40
0.18
  9
$DIMCEN
 40
0.09
  9
$DIMTSZ
 40
0.0
  9
$DIMTOL
 70
     0
  9
$DIMLIM
 70
     0
  9
$DIMTIH
 70
     1
  9
$DIMTOH
 70
     1
  9
$DIMSE1
 70
     0
  9
$DIMSE2
 70
     0
  9
$DIMTAD
 70
     0
  9
$DIMZIN
 70
     0
  9
$DIMBLK
  1

  9
$DIMASO
 70
     1
  9
$DIMSHO
 70
     1
  9
$DIMPOST
  1

  9
$DIMAPOST
  1

  9
$DIMALT
 70
     0
  9
$DIMALTD
 70
     2
  9
$DIMALTF
 40
25.399999999999999
  9
$DIMLFAC
 40
1.0
  9
$DIMTOFL
 70
     0
  9
$DIMTVP
 40
0.0
  9
$DIMTIX
 70
     0
  9
$DIMSOXD
 70
     0
  9
$DIMSAH
 70
     0
  9
$DIMBLK1
  1

  9
$DIMBLK2
  1

  9
$DIMSTYLE
  2
STANDARD
  9
$DIMCLRD
 70
     0
  9
$DIMCLRE
 70
     0
  9
$DIMCLRT
 70
     0
  9
$DIMTFAC
 40
1.0
  9
$DIMGAP
 40
0.09
  9
$LUNITS
 70
     2
  9
$LUPREC
 70
     4
  9
$SKETCHINC
 40
0.1
  9
$FILLETRAD
 40
0.5
  9
$AUNITS
 70
     0
  9
$AUPREC
 70
     0
  9
$MENU
  1
.
  9
$ELEVATION
 40
0.0
  9
$PELEVATION
 40
0.0
  9
$THICKNESS
 40
0.0
  9
$LIMCHECK
 70
     0
  9
$BLIPMODE
 70
     0
  9
$CHAMFERA
 40
0.5
  9
$CHAMFERB
 40
0.5
  9
$SKPOLY
 70
     0
  9
$TDCREATE
 40
2451192.901182164
  9
$TDUPDATE
 40
2452556.8396023032
  9
$TDINDWG
 40
0.3019879282
  9
$TDUSRTIMER
 40
0.301987581
  9
$USRTIMER
 70
     1
  9
$ANGBASE
 50
0.0
  9
$ANGDIR
 70
     0
  9
$PDMODE
 70
     0
  9
$PDSIZE
 40
0.0
  9
$PLINEWID
 40
0.0
  9
$COORDS
 70
     1
  9
$SPLFRAME
 70
     0
  9
$SPLINETYPE
 70
     6
  9
$SPLINESEGS
 70
     8
  9
$ATTDIA
 70
     0
  9
$ATTREQ
 70
     1
  9
$HANDLING
 70
 22529
  9
$HANDSEED
  5
A9D
  9
$SURFTAB1
 70
     6
  9
$SURFTAB2
 70
     6
  9
$SURFTYPE
 70
     6
  9
$SURFU
 70
     6
  9
$SURFV
 70
     6
  9
$UCSNAME
  2

  9
$UCSORG
 10
0.0
 20
0.0
 30
0.0
  9
$UCSXDIR
 10
1.0
 20
0.0
 30
0.0
  9
$UCSYDIR
 10
0.0
 20
1.0
 30
0.0
  9
$PUCSNAME
  2

  9
$PUCSORG
 10
0.0
 20
0.0
 30
0.0
  9
$PUCSXDIR
 10
1.0
 20
0.0
 30
0.0
  9
$PUCSYDIR
 10
0.0
 20
1.0
 30
0.0
  9
$USERI1
 70
     0
  9
$USERI2
 70
     0
  9
$USERI3
 70
     0
  9
$USERI4
 70
     0
  9
$USERI5
 70
     0
  9
$USERR1
 40
0.0
  9
$USERR2
 40
0.0
  9
$USERR3
 40
0.0
  9
$USERR4
 40
0.0
  9
$USERR5
 40
0.0
  9
$WORLDVIEW
 70
     1
  9
$SHADEDGE
 70
     3
  9
$SHADEDIF
 70
    70
  9
$TILEMODE
 70
     1
  9
$MAXACTVP
 70
    64
  9
$PLIMCHECK
 70
     0
  9
$PEXTMIN
 10
1.0000000000000000E+020
 20
1.0000000000000000E+020
 30
1.0000000000000000E+020
  9
$PEXTMAX
 10
-1.0000000000000000E+020
 20
-1.0000000000000000E+020
 30
-1.0000000000000000E+020
  9
$PLIMMIN
 10
0.0
 20
0.0
  9
$PLIMMAX
 10
12.0
 20
9.0
  9
$UNITMODE
 70
     0
  9
$VISRETAIN
 70
     1
  9
$PLINEGEN
 70
     0
  9
$PSLTSCALE
 70
     1
  0
ENDSEC
  0
SECTION
  2
TABLES
  0
TABLE
  2
VPORT
 70
     2
  0
VPORT
  2
*ACTIVE
 70
     0
 10
0.0
 20
0.0
 11
1.0
 21
1.0
 12
171.1001742006836
 22
93.871468638243499
 13
0.0
 23
0.0
 14
0.5
 24
0.5
 15
12.0
 25
12.0
 16
0.0
 26
0.0
 36
1.0
 17
0.0
 27
0.0
 37
0.0
 40
197.73420228825569
 41
1.7416356877323409
 42
50.0
 43
0.0
 44
0.0
 50
0.0
 51
0.0
 71
     0
 72
   100
 73
     1
 74
     3
 75
     0
 76
     1
 77
     0
 78
     0
  0
ENDTAB
  0
TABLE
  2
LTYPE
 70
     1
  0
LTYPE
  2
CONTINUOUS
 70
     0
  3
Solid line
 72
    65
 73
     0
 40
0.0
  0
ENDTAB
  0
TABLE
  2
LAYER
 70
     1
  0
LAYER
  2
0
 70
     0
 62
     7
  6
CONTINUOUS
  0
ENDTAB
  0
TABLE
  2
STYLE
 70
     1
  0
STYLE
  2
STANDARD
 70
     0
 40
0.0
 41
1.0
 50
0.0
 71
     0
 42
0.2
  3
txt
  4

  0
ENDTAB
  0
TABLE
  2
VIEW
 70
     0
  0
ENDTAB
  0
TABLE
  2
UCS
 70
     0
  0
ENDTAB
  0
TABLE
  2
APPID
 70
     3
  0
APPID
  2
ACAD
 70
     0
  0
APPID
  2
CONTENTBLOCKDESCRIPTION
 70
     0
  0
APPID
  2
CONTENTBLOCKICON
 70
     0
  0
ENDTAB
  0
TABLE
  2
DIMSTYLE
 70
     1
  0
DIMSTYLE
  2
STANDARD
 70
     0
  3

  4

  5

  6

  7

 40
1.0
 41
0.18
 42
0.0625
 43
0.38
 44
0.18
 45
0.0
 46
0.0
 47
0.0
 48
0.0
140
0.18
141
0.09
142
0.0
143
25.399999999999999
144
1.0
145
0.0
146
1.0
147
0.09
 71
     0
 72
     0
 73
     1
 74
     1
 75
     0
 76
     0
 77
     0
 78
     0
170
     0
171
     2
172
     0
173
     0
174
     0
175
     0
176
     0
177
     0
178
     0
  0
ENDTAB
  0
ENDSEC
  0
SECTION
  2
BLOCKS
  0
BLOCK
  8
0
  2
$MODEL_SPACE
 70
     0
 10
0.0
 20
0.0
 30
0.0
  3
$MODEL_SPACE
  1

  0
ENDBLK
  5
21
  8
0
  0
BLOCK
 67
     1
  8
0
  2
$PAPER_SPACE
 70
     0
 10
0.0
 20
0.0
 30
0.0
  3
$PAPER_SPACE
  1

  0
ENDBLK
  5
1D
 67
     1
  8
0
  0
BLOCK
  8
0
  2
SCHRANK_-_SCHRANKTÜR_1_IN_
 70
     2
 10
0.0
 20
0.0
 30
0.0
  3
SCHRANK_-_SCHRANKTÜR_1_IN_
  1
BASE_CABINET_1_DRAWER_SIDE
  0
LINE
  5
2C
  8
0
 10
-24.0
 20
6.0
 30
0.0
 11
-24.0
 21
28.500000000000028
 31
0.0
  0
LINE
  5
2D
  8
0
 10
-23.5
 20
28.500000000000028
 30
0.0
 11
-23.5
 21
6.0
 31
0.0
  0
POLYLINE
  5
2E
  8
0
 66
     1
 10
0.0
 20
0.0
 30
0.0
  0
VERTEX
  5
90F
  8
0
 10
-23.0
 20
5.0
 30
0.0
  0
VERTEX
  5
910
  8
0
 10
-23.0
 20
34.500000000000021
 30
0.0
  0
VERTEX
  5
911
  8
0
 10
0.0
 20
34.500000000000021
 30
0.0
  0
VERTEX
  5
912
  8
0
 10
0.0
 20
0.0
 30
0.0
  0
VERTEX
  5
913
  8
0
 10
-20.0
 20
0.0
 30
0.0
  0
SEQEND
  5
914
  8
0
  0
LINE
  5
2F
  8
0
 10
-20.0
 20
0.0
 30
0.0
 11
-20.0
 21
5.0
 31
0.0
  0
LINE
  5
30
  8
0
 10
-20.0
 20
5.0
 30
0.0
 11
-23.0
 21
5.0
 31
0.0
  0
LINE
  5
31
  8
0
 10
-23.5
 20
6.0
 30
0.0
 11
-24.0
 21
6.0
 31
0.0
  0
LINE
  5
32
  8
0
 10
-24.0
 20
33.500000000000028
 30
0.0
 11
-23.5
 21
33.500000000000028
 31
0.0
  0
LINE
  5
33
  8
0
 10
-23.5
 20
29.500000000000011
 30
0.0
 11
-24.0
 21
29.500000000000011
 31
0.0
  0
LINE
  5
34
  8
0
 10
-24.0
 20
28.500000000000028
 30
0.0
 11
-23.5
 21
28.500000000000028
 31
0.0
  0
LINE
  5
35
  8
0
 10
-23.5
 20
33.500000000000028
 30
0.0
 11
-23.5
 21
29.500000000000011
 31
0.0
  0
LINE
  5
36
  8
0
 10
-24.0
 20
29.500000000000011
 30
0.0
 11
-24.0
 21
33.500000000000028
 31
0.0
  0
ENDBLK
  5
38
  8
0
  0
BLOCK
  8
0
  2
SCHRANK_-_SCHRANKTÜR_1_MIT
 70
     2
 10
0.0
 20
0.0
 30
0.0
  3
SCHRANK_-_SCHRANKTÜR_1_MIT
  1
BASE_CABINET_1_DRWR_24IN_FRONT
  0
LINE
  5
4F
  8
0
 10
0.0
 20
5.0
 30
0.0
 11
24.0
 21
5.0
 31
0.0
  0
LINE
  5
50
  8
0
 10
23.0
 20
28.499999999999989
 30
0.0
 11
1.0
 21
28.499999999999989
 31
0.0
  0
LINE
  5
51
  8
0
 10
1.0
 20
29.499999999999989
 30
0.0
 11
23.0
 21
29.499999999999989
 31
0.0
  0
LINE
  5
52
  8
0
 10
0.0
 20
0.0
 30
0.0
 11
0.0
 21
34.5
 31
0.0
  0
LINE
  5
53
  8
0
 10
0.0
 20
34.5
 30
0.0
 11
24.0
 21
34.5
 31
0.0
  0
LINE
  5
54
  8
0
 10
24.0
 20
34.5
 30
0.0
 11
24.0
 21
0.0
 31
0.0
  0
LINE
  5
55
  8
0
 10
24.0
 20
0.0
 30
0.0
 11
0.0
 21
0.0
 31
0.0
  0
LINE
  5
56
  8
0
 10
23.0
 20
28.499999999999989
 30
0.0
 11
23.0
 21
6.0
 31
0.0
  0
LINE
  5
57
  8
0
 10
23.0
 20
6.0
 30
0.0
 11
1.0
 21
6.0
 31
0.0
  0
LINE
  5
58
  8
0
 10
1.0
 20
6.0
 30
0.0
 11
1.0
 21
28.499999999999989
 31
0.0
  0
LINE
  5
59
  8
0
 10
1.0
 20
29.499999999999989
 30
0.0
 11
1.0
 21
33.5
 31
0.0
  0
LINE
  5
5A
  8
0
 10
1.0
 20
33.5
 30
0.0
 11
23.0
 21
33.5
 31
0.0
  0
LINE
  5
5B
  8
0
 10
23.0
 20
33.5
 30
0.0
 11
23.0
 21
29.499999999999989
 31
0.0
  0
ENDBLK
  5
5D
  8
0
  0
BLOCK
  8
0
  2
GESCHIRRSPÜLMASCHINE
 70
     2
 10
0.0
 20
0.0
 30
0.0
  3
GESCHIRRSPÜLMASCHINE
  1
DISHWASHER
  0
LINE
  5
70
  8
0
 10
19.315600000000011
 20
33.184299999999958
 30
0.0
 11
19.5
 21
32.999999999999957
 31
0.0
  0
LINE
  5
71
  8
0
 10
20.5
 20
32.999999999999957
 30
0.0
 11
20.69380000000001
 21
33.193799999999982
 31
0.0
  0
LINE
  5
72
  8
0
 10
20.706100000000049
 20
31.793899999999962
 30
0.0
 11
20.5
 21
31.999999999999972
 31
0.0
  0
LINE
  5
73
  8
0
 10
19.5
 20
31.999999999999972
 30
0.0
 11
19.294200000000028
 21
31.794199999999989
 31
0.0
  0
LINE
  5
74
  8
0
 10
20.0
 20
32.249999999999957
 30
0.0
 11
20.0
 21
31.499999999999961
 31
0.0
  0
LINE
  5
75
  8
0
 10
20.0
 20
32.749999999999957
 30
0.0
 11
20.0
 21
33.499999999999957
 31
0.0
  0
LINE
  5
76
  8
0
 10
19.0
 20
32.499999999999957
 30
0.0
 11
19.75
 21
32.499999999999957
 31
0.0
  0
LINE
  5
77
  8
0
 10
21.0
 20
32.499999999999957
 30
0.0
 11
20.249999999999989
 21
32.499999999999957
 31
0.0
  0
CIRCLE
  5
78
  8
0
 10
20.0
 20
32.499999999999957
 30
0.0
 40
1.0
  0
LINE
  5
79
  8
0
 10
16.315600000000011
 20
33.184299999999958
 30
0.0
 11
16.5
 21
32.999999999999957
 31
0.0
  0
LINE
  5
7A
  8
0
 10
17.5
 20
32.999999999999957
 30
0.0
 11
17.69380000000001
 21
33.193799999999982
 31
0.0
  0
LINE
  5
7B
  8
0
 10
17.706100000000038
 20
31.793899999999962
 30
0.0
 11
17.5
 21
31.999999999999972
 31
0.0
  0
LINE
  5
7C
  8
0
 10
16.5
 20
31.999999999999972
 30
0.0
 11
16.294200000000039
 21
31.794199999999989
 31
0.0
  0
LINE
  5
7D
  8
0
 10
17.0
 20
32.249999999999957
 30
0.0
 11
17.0
 21
31.499999999999961
 31
0.0
  0
LINE
  5
7E
  8
0
 10
17.0
 20
32.749999999999957
 30
0.0
 11
17.0
 21
33.499999999999957
 31
0.0
  0
LINE
  5
7F
  8
0
 10
16.0
 20
32.499999999999957
 30
0.0
 11
16.75
 21
32.499999999999957
 31
0.0
  0
LINE
  5
80
  8
0
 10
18.0
 20
32.499999999999957
 30
0.0
 11
17.25
 21
32.499999999999957
 31
0.0
  0
CIRCLE
  5
81
  8
0
 10
17.0
 20
32.499999999999957
 30
0.0
 40
1.0
  0
POLYLINE
  5
82
  8
0
 66
     1
 10
0.0
 20
0.0
 30
0.0
 70
     1
  0
VERTEX
  5
919
  8
0
 10
15.0
 20
30.999999999999961
 30
0.0
  0
VERTEX
  5
91A
  8
0
 10
15.0
 20
33.999999999999957
 30
0.0
  0
VERTEX
  5
91B
  8
0
 10
22.0
 20
33.999999999999957
 30
0.0
  0
VERTEX
  5
91C
  8
0
 10
22.0
 20
30.999999999999961
 30
0.0
  0
SEQEND
  5
91D
  8
0
  0
CIRCLE
  5
83
  8
0
 10
7.5
 20
32.499999999999957
 30
0.0
 40
0.75
  0
CIRCLE
  5
84
  8
0
 10
5.0
 20
32.499999999999957
 30
0.0
 40
0.75
  0
CIRCLE
  5
85
  8
0
 10
2.5
 20
32.499999999999957
 30
0.0
 40
0.75
  0
CIRCLE
  5
86
  8
0
 10
10.0
 20
32.499999999999957
 30
0.0
 40
0.75
  0
POLYLINE
  5
87
  8
0
 66
     1
 10
0.0
 20
0.0
 30
0.0
 70
     1
  0
VERTEX
  5
91E
  8
0
 10
0.5
 20
30.999999999999961
 30
0.0
  0
VERTEX
  5
91F
  8
0
 10
0.5
 20
33.999999999999957
 30
0.0
  0
VERTEX
  5
920
  8
0
 10
12.0
 20
33.999999999999957
 30
0.0
  0
VERTEX
  5
921
  8
0
 10
12.0
 20
30.999999999999961
 30
0.0
  0
SEQEND
  5
922
  8
0
  0
LINE
  5
88
  8
0
 10
24.0
 20
30.499999999999972
 30
0.0
 11
0.0
 21
30.499999999999972
 31
0.0
  0
POLYLINE
  5
89
  8
0
 66
     1
 10
0.0
 20
0.0
 30
0.0
 70
     1
  0
VERTEX
  5
923
  8
0
 10
0.0
 20
0.0
 30
0.0
  0
VERTEX
  5
924
  8
0
 10
0.0
 20
34.499999999999957
 30
0.0
  0
VERTEX
  5
925
  8
0
 10
24.0
 20
34.499999999999957
 30
0.0
  0
VERTEX
  5
926
  8
0
 10
24.0
 20
0.0
 30
0.0
  0
SEQEND
  5
927
  8
0
  0
LINE
  5
8A
  8
0
 10
0.0
 20
5.0
 30
0.0
 11
24.0
 21
5.0
 31
0.0
  0
ENDBLK
  5
8C
  8
0
  0
BLOCK
  8
0
  2
ARMATUR_-_KÜCHENARMATUR_IN
 70
     2
 10
0.0
 20
0.0
 30
0.0
  3
ARMATUR_-_KÜCHENARMATUR_IN
  1
FAUCET_STANDARD_FRONT
  0
POLYLINE
  5
AD
  8
0
 66
     1
 10
0.0
 20
0.0
 30
0.0
  0
VERTEX
  5
92A
  8
0
 10
5.0
 20
3.251299999999957
 30
0.0
  0
VERTEX
  5
92B
  8
0
 10
5.0
 20
3.5
 30
0.0
  0
VERTEX
  5
92C
  8
0
 10
3.0
 20
3.5
 30
0.0
  0
VERTEX
  5
92D
  8
0
 10
3.0
 20
1.5
 30
0.0
  0
VERTEX
  5
92E
  8
0
 10
5.0
 20
1.5
 30
0.0
  0
VERTEX
  5
92F
  8
0
 10
5.0
 20
2.5
 30
0.0
  0
SEQEND
  5
930
  8
0
  0
POLYLINE
  5
AE
  8
0
 66
     1
 10
0.0
 20
0.0
 30
0.0
 70
     1
  0
VERTEX
  5
931
  8
0
 10
5.5
 20
2.5
 30
0.0
  0
VERTEX
  5
932
  8
0
 10
5.5
 20
3.25
 30
0.0
  0
VERTEX
  5
933
  8
0
 10
4.5
 20
3.25
 30
0.0
  0
VERTEX
  5
934
  8
0
 10
4.5
 20
2.5
 30
0.0
  0
SEQEND
  5
935
  8
0
  0
LINE
  5
AF
  8
0
 10
3.5
 20
1.5
 30
0.0
 11
3.5
 21
1.0
 31
0.0
  0
LINE
  5
B0
  8
0
 10
4.5
 20
1.0
 30
0.0
 11
4.5
 21
1.5
 31
0.0
  0
LINE
  5
B1
  8
0
 10
-0.75
 20
3.5
 30
0.0
 11
0.319199999999995
 21
3.5
 31
0.0
  0
LINE
  5
B2
  8
0
 10
0.75
 20
2.5
 30
0.0
 11
0.75
 21
1.0
 31
0.0
  0
LINE
  5
B3
  8
0
 10
-0.25
 20
2.5
 30
0.0
 11
-0.25
 21
3.0
 31
0.0
  0
LINE
  5
B4
  8
0
 10
0.75
 20
2.5
 30
0.0
 11
-0.25
 21
2.5
 31
0.0
  0
LINE
  5
B5
  8
0
 10
4.1921099999999853
 20
5.5040999999999931
 30
0.0
 11
0.75
 21
2.5
 31
0.0
  0
LINE
  5
B6
  8
0
 10
3.75
 20
5.5
 30
0.0
 11
3.75
 21
6.0
 31
0.0
  0
LINE
  5
B7
  8
0
 10
4.75
 20
5.5
 30
0.0
 11
3.75
 21
5.5
 31
0.0
  0
LINE
  5
B8
  8
0
 10
4.75
 20
6.0
 30
0.0
 11
4.75
 21
5.5
 31
0.0
  0
LINE
  5
B9
  8
0
 10
3.75
 20
6.0
 30
0.0
 11
-0.25
 21
2.5
 31
0.0
  0
LINE
  5
BA
  8
0
 10
3.75
 20
6.0
 30
0.0
 11
3.75
 21
6.5
 31
0.0
  0
LINE
  5
BB
  8
0
 10
4.75
 20
6.0
 30
0.0
 11
3.75
 21
6.0
 31
0.0
  0
LINE
  5
BC
  8
0
 10
4.75
 20
6.5
 30
0.0
 11
4.75
 21
6.0
 31
0.0
  0
LINE
  5
BD
  8
0
 10
3.75
 20
6.5
 30
0.0
 11
4.75
 21
6.5
 31
0.0
  0
LINE
  5
BE
  8
0
 10
-0.25
 20
3.0
 30
0.0
 11
3.75
 21
6.5
 31
0.0
  0
LINE
  5
BF
  8
0
 10
-0.75
 20
1.0
 30
0.0
 11
-0.75
 21
3.5
 31
0.0
  0
POLYLINE
  5
C0
  8
0
 66
     1
 10
0.0
 20
0.0
 30
0.0
  0
VERTEX
  5
936
  8
0
 10
-5.0
 20
3.251299999999957
 30
0.0
  0
VERTEX
  5
937
  8
0
 10
-5.0
 20
3.5
 30
0.0
  0
VERTEX
  5
938
  8
0
 10
-3.0
 20
3.5
 30
0.0
  0
VERTEX
  5
939
  8
0
 10
-3.0
 20
1.5
 30
0.0
  0
VERTEX
  5
93A
  8
0
 10
-5.0
 20
1.5
 30
0.0
  0
VERTEX
  5
93B
  8
0
 10
-5.0
 20
2.5
 30
0.0
  0
SEQEND
  5
93C
  8
0
  0
POLYLINE
  5
C1
  8
0
 66
     1
 10
0.0
 20
0.0
 30
0.0
 70
     1
  0
VERTEX
  5
93D
  8
0
 10
-5.5
 20
2.5
 30
0.0
  0
VERTEX
  5
93E
  8
0
 10
-5.5
 20
3.25
 30
0.0
  0
VERTEX
  5
93F
  8
0
 10
-4.5
 20
3.25
 30
0.0
  0
VERTEX
  5
940
  8
0
 10
-4.5
 20
2.5
 30
0.0
  0
SEQEND
  5
941
  8
0
  0
LINE
  5
C2
  8
0
 10
-3.5
 20
1.5
 30
0.0
 11
-3.5
 21
1.0
 31
0.0
  0
LINE
  5
C3
  8
0
 10
-4.5
 20
1.0
 30
0.0
 11
-4.5
 21
1.5
 31
0.0
  0
POLYLINE
  5
C4
  8
0
 66
     1
 10
0.0
 20
0.0
 30
0.0
 70
     1
  0
VERTEX
  5
942
  8
0
 10
-6.0
 20
0.0
 30
0.0
  0
VERTEX
  5
943
  8
0
 10
-6.0
 20
1.0
 30
0.0
  0
VERTEX
  5
944
  8
0
 10
6.0
 20
1.0
 30
0.0
  0
VERTEX
  5
945
  8
0
 10
6.0
 20
0.0
 30
0.0
  0
SEQEND
  5
946
  8
0
  0
ENDBLK
  5
C6
  8
0
  0
BLOCK
  8
0
  2
ARMATUR_-_KÜCHENARMATUR_I0
 70
     2
 10
0.0
 20
0.0
 30
0.0
  3
ARMATUR_-_KÜCHENARMATUR_I0
  1
FAUCET_STANDARD_TOP
  0
POLYLINE
  5
E4
  8
0
 66
     1
 10
0.0
 20
0.0
 30
0.0
  0
VERTEX
  5
949
  8
0
 10
-0.0058699999999945
 20
-2.0
 30
0.0
  0
VERTEX
  5
94A
  8
0
 10
-6.0
 20
-2.0
 30
0.0
  0
VERTEX
  5
94B
  8
0
 10
-6.0
 20
0.0
 30
0.0
  0
VERTEX
  5
94C
  8
0
 10
6.0
 20
0.0
 30
0.0
  0
VERTEX
  5
94D
  8
0
 10
6.0
 20
-2.0
 30
0.0
  0
VERTEX
  5
94E
  8
0
 10
1.151949999999998
 20
-2.0
 30
0.0
  0
SEQEND
  5
94F
  8
0
  0
CIRCLE
  5
E5
  8
0
 10
-4.0
 20
-1.0
 30
0.0
 40
1.0
  0
LINE
  5
E6
  8
0
 10
5.5
 20
-1.25
 30
0.0
 11
4.9427800000000062
 21
-1.25
 31
0.0
  0
LINE
  5
E7
  8
0
 10
4.9427800000000062
 20
-0.75
 30
0.0
 11
5.5
 21
-0.75
 31
0.0
  0
LINE
  5
E8
  8
0
 10
5.5
 20
-0.75
 30
0.0
 11
5.5
 21
-1.25
 31
0.0
  0
CIRCLE
  5
E9
  8
0
 10
4.0
 20
-1.0
 30
0.0
 40
1.0
  0
CIRCLE
  5
EA
  8
0
 10
0.0
 20
-1.0
 30
0.0
 40
0.75
  0
LINE
  5
EB
  8
0
 10
-5.5
 20
-0.75
 30
0.0
 11
-5.5
 21
-1.25
 31
0.0
  0
LINE
  5
EC
  8
0
 10
-5.5
 20
-1.25
 30
0.0
 11
-4.9427799999999991
 21
-1.25
 31
0.0
  0
LINE
  5
ED
  8
0
 10
-4.9427799999999991
 20
-0.75
 30
0.0
 11
-5.5
 21
-0.75
 31
0.0
  0
ARC
  5
EE
  8
0
 10
4.0
 20
-7.9282000000000021
 30
0.0
 40
0.5
 50
209.99999999999989
 51
30.0
  0
LINE
  5
EF
  8
0
 10
-0.147750000000002
 20
-1.7441000000000031
 30
0.0
 11
3.566980000000008
 21
-8.1782000000000021
 31
0.0
  0
LINE
  5
F0
  8
0
 10
4.433010000000003
 20
-7.6782000000000021
 30
0.0
 11
0.7182800000000073
 21
-1.244100000000002
 31
0.0
  0
ENDBLK
  5
F2
  8
0
  0
BLOCK
  8
0
  2
ARMATUR_-_EINHEBELMISCHER_
 70
     2
 10
0.0
 20
0.0
 30
0.0
  3
ARMATUR_-_EINHEBELMISCHER_
  1
FAUCET_WASHERLESS_FRONT
  0
LINE
  5
105
  8
0
 10
-0.75
 20
1.0
 30
0.0
 11
0.75
 21
1.0
 31
0.0
  0
LINE
  5
106
  8
0
 10
-0.5
 20
4.0
 30
0.0
 11
0.5
 21
4.0
 31
0.0
  0
LINE
  5
107
  8
0
 10
-0.5
 20
4.0
 30
0.0
 11
-2.0
 21
5.5
 31
0.0
  0
LINE
  5
108
  8
0
 10
-1.0
 20
5.5
 30
0.0
 11
0.5
 21
4.0
 31
0.0
  0
LINE
  5
109
  8
0
 10
-1.0
 20
5.5
 30
0.0
 11
-1.0
 21
6.0
 31
0.0
  0
LINE
  5
10A
  8
0
 10
-2.0
 20
5.5
 30
0.0
 11
-1.0
 21
5.5
 31
0.0
  0
LINE
  5
10B
  8
0
 10
-2.0
 20
6.0
 30
0.0
 11
-2.0
 21
5.5
 31
0.0
  0
LINE
  5
10C
  8
0
 10
-1.0
 20
6.0
 30
0.0
 11
-2.0
 21
6.0
 31
0.0
  0
LINE
  5
10D
  8
0
 10
0.5
 20
4.0
 30
0.0
 11
-1.0
 21
6.0
 31
0.0
  0
ARC
  5
10E
  8
0
 10
1.254260000000001
 20
3.030199999999978
 30
0.0
 40
2.0044819999999981
 50
151.06460000000001
 51
180.86289999999991
  0
ARC
  5
10F
  8
0
 10
-1.254260000000001
 20
3.030199999999978
 30
0.0
 40
2.0044819999999981
 50
359.1370999999998
 51
28.935359999999999
  0
LINE
  5
110
  8
0
 10
0.75
 20
1.5
 30
0.0
 11
0.75
 21
0.5
 31
0.0
  0
LINE
  5
111
  8
0
 10
0.75
 20
3.0
 30
0.0
 11
0.75
 21
2.738600000000019
 31
0.0
  0
LINE
  5
112
  8
0
 10
-0.25
 20
1.5
 30
0.0
 11
-0.25
 21
2.0
 31
0.0
  0
LINE
  5
113
  8
0
 10
0.75
 20
1.5
 30
0.0
 11
-0.25
 21
1.5
 31
0.0
  0
LINE
  5
114
  8
0
 10
0.75
 20
1.5
 30
0.0
 11
4.0874200000000078
 21
4.002999999999985
 31
0.0
  0
LINE
  5
115
  8
0
 10
-0.75
 20
3.0
 30
0.0
 11
0.75
 21
3.0
 31
0.0
  0
LINE
  5
116
  8
0
 10
-0.75
 20
0.5
 30
0.0
 11
-0.75
 21
3.0
 31
0.0
  0
LINE
  5
117
  8
0
 10
3.75
 20
4.0
 30
0.0
 11
3.75
 21
4.5
 31
0.0
  0
LINE
  5
118
  8
0
 10
4.75
 20
4.0
 30
0.0
 11
3.75
 21
4.0
 31
0.0
  0
LINE
  5
119
  8
0
 10
4.75
 20
4.5
 30
0.0
 11
4.75
 21
4.0
 31
0.0
  0
LINE
  5
11A
  8
0
 10
3.75
 20
4.5
 30
0.0
 11
-0.25
 21
1.5
 31
0.0
  0
LINE
  5
11B
  8
0
 10
3.75
 20
4.5
 30
0.0
 11
3.75
 21
5.0
 31
0.0
  0
LINE
  5
11C
  8
0
 10
4.75
 20
4.5
 30
0.0
 11
3.75
 21
4.5
 31
0.0
  0
LINE
  5
11D
  8
0
 10
4.75
 20
5.0
 30
0.0
 11
4.75
 21
4.5
 31
0.0
  0
LINE
  5
11E
  8
0
 10
3.75
 20
5.0
 30
0.0
 11
4.75
 21
5.0
 31
0.0
  0
LINE
  5
11F
  8
0
 10
-0.25
 20
2.0
 30
0.0
 11
3.75
 21
5.0
 31
0.0
  0
POLYLINE
  5
120
  8
0
 66
     1
 10
0.0
 20
0.0
 30
0.0
 70
     1
  0
VERTEX
  5
952
  8
0
 10
-6.0
 20
0.0
 30
0.0
  0
VERTEX
  5
953
  8
0
 10
-6.0
 20
0.5
 30
0.0
  0
VERTEX
  5
954
  8
0
 10
6.0
 20
0.5
 30
0.0
  0
VERTEX
  5
955
  8
0
 10
6.0
 20
0.0
 30
0.0
  0
SEQEND
  5
956
  8
0
  0
ENDBLK
  5
122
  8
0
  0
BLOCK
  8
0
  2
ARMATUR_-_EINHEBELMISCHER0
 70
     2
 10
0.0
 20
0.0
 30
0.0
  3
ARMATUR_-_EINHEBELMISCHER0
  1
FAUCET_WASHERLESS_TOP
  0
POLYLINE
  5
12B
  8
0
 66
     1
 10
0.0
 20
0.0
 30
0.0
  0
VERTEX
  5
959
  8
0
 10
-0.0067515000000018
 20
-2.0
 30
0.0
  0
VERTEX
  5
95A
  8
0
 10
-0.1165915000000002
 20
-2.0
 30
0.0
  0
SEQEND
  5
95B
  8
0
  0
ARC
  5
12C
  8
0
 10
-0.0000015000000015
 20
-1.0
 30
0.0
 40
0.75
 50
269.22460000000001
 51
216.2304
  0
LINE
  5
12D
  8
0
 10
-2.261461499999998
 20
-4.3369999999999891
 30
0.0
 11
-1.3704615
 21
-4.790999999999995
 31
0.0
  0
ARC
  5
12E
  8
0
 10
3.9999984999999998
 20
-7.9282000000000021
 30
0.0
 40
0.5
 50
209.99999999999989
 51
30.0
  0
LINE
  5
12F
  8
0
 10
0.0793784999999989
 20
-0.2599999999999909
 30
0.0
 11
-2.261461499999998
 21
-4.3369999999999891
 31
0.0
  0
LINE
  5
130
  8
0
 10
-1.3704615
 20
-4.790999999999995
 30
0.0
 11
0.5507084999999991
 21
-0.5036999999999808
 31
0.0
  0
LINE
  5
131
  8
0
 10
-0.0600815000000008
 20
-1.895899999999983
 30
0.0
 11
3.5669884999999968
 21
-8.1782000000000021
 31
0.0
  0
LINE
  5
132
  8
0
 10
4.4330184999999984
 20
-7.6782000000000021
 30
0.0
 11
0.7182785000000003
 21
-1.244100000000002
 31
0.0
  0
POLYLINE
  5
133
  8
0
 66
     1
 10
0.0
 20
0.0
 30
0.0
  0
VERTEX
  5
95C
  8
0
 10
-0.9178414999999995
 20
-2.0
 30
0.0
  0
VERTEX
  5
95D
  8
0
 10
-5.9999985000000011
 20
-2.0
 30
0.0
  0
VERTEX
  5
95E
  8
0
 10
-5.9999985000000011
 20
0.0
 30
0.0
  0
VERTEX
  5
95F
  8
0
 10
5.9999985000000002
 20
0.0
 30
0.0
  0
VERTEX
  5
960
  8
0
 10
5.9999985000000002
 20
-2.0
 30
0.0
  0
VERTEX
  5
961
  8
0
 10
1.1565984999999981
 20
-2.0
 30
0.0
  0
SEQEND
  5
962
  8
0
  0
ENDBLK
  5
135
  8
0
  0
BLOCK
  8
0
  2
EIS-_UND_WASSERSPENDER
 70
     2
 10
0.0
 20
0.0
 30
0.0
  3
EIS-_UND_WASSERSPENDER
  1
ICE_AND_WATER_MAKER
  0
LINE
  5
13D
  8
0
 10
6.5
 20
8.0
 30
0.0
 11
7.0
 21
8.0
 31
0.0
  0
LINE
  5
13E
  8
0
 10
7.0
 20
8.5
 30
0.0
 11
6.5
 21
8.5
 31
0.0
  0
LINE
  5
13F
  8
0
 10
6.75
 20
10.25
 30
0.0
 11
5.75
 21
10.25
 31
0.0
  0
LINE
  5
140
  8
0
 10
7.0
 20
9.5
 30
0.0
 11
6.75
 21
10.25
 31
0.0
  0
LINE
  5
141
  8
0
 10
5.75
 20
10.25
 30
0.0
 11
5.5
 21
9.5
 31
0.0
  0
LINE
  5
142
  8
0
 10
5.5
 20
9.5
 30
0.0
 11
7.0
 21
9.5
 31
0.0
  0
LINE
  5
143
  8
0
 10
6.5
 20
9.0
 30
0.0
 11
6.0
 21
9.0
 31
0.0
  0
LINE
  5
144
  8
0
 10
6.5
 20
7.5
 30
0.0
 11
6.5
 21
9.0
 31
0.0
  0
LINE
  5
145
  8
0
 10
7.0
 20
7.0
 30
0.0
 11
6.5
 21
7.5
 31
0.0
  0
LINE
  5
146
  8
0
 10
5.5
 20
7.0
 30
0.0
 11
7.0
 21
7.0
 31
0.0
  0
LINE
  5
147
  8
0
 10
6.0
 20
7.5
 30
0.0
 11
5.5
 21
7.0
 31
0.0
  0
LINE
  5
148
  8
0
 10
6.0
 20
9.0
 30
0.0
 11
6.0
 21
7.5
 31
0.0
  0
LINE
  5
149
  8
0
 10
7.5
 20
2.25
 30
0.0
 11
7.0
 21
2.75
 31
0.0
  0
LINE
  5
14A
  8
0
 10
7.0
 20
3.0
 30
0.0
 11
8.0
 21
2.0
 31
0.0
  0
LINE
  5
14B
  8
0
 10
7.0
 20
3.0
 30
0.0
 11
7.0
 21
11.0
 31
0.0
  0
LINE
  5
14C
  8
0
 10
3.5636000000000081
 20
9.0
 30
0.0
 11
3.5
 21
9.0
 31
0.0
  0
LINE
  5
14D
  8
0
 10
4.0
 20
9.0
 30
0.0
 11
3.941600000000022
 21
9.0
 31
0.0
  0
POLYLINE
  5
14E
  8
0
 66
     1
 10
0.0
 20
0.0
 30
0.0
 70
     1
  0
VERTEX
  5
965
  8
0
 10
3.5625
 20
8.0
 30
0.0
  0
VERTEX
  5
966
  8
0
 10
3.5625
 20
9.5
 30
0.0
  0
VERTEX
  5
967
  8
0
 10
3.9375
 20
9.5
 30
0.0
  0
VERTEX
  5
968
  8
0
 10
3.9375
 20
8.0
 30
0.0
  0
SEQEND
  5
969
  8
0
  0
LINE
  5
14F
  8
0
 10
3.5
 20
8.5
 30
0.0
 11
3.0
 21
8.5
 31
0.0
  0
LINE
  5
150
  8
0
 10
3.0
 20
8.0
 30
0.0
 11
3.5
 21
8.0
 31
0.0
  0
LINE
  5
151
  8
0
 10
4.0
 20
7.5
 30
0.0
 11
4.0
 21
9.0
 31
0.0
  0
LINE
  5
152
  8
0
 10
4.5
 20
7.0
 30
0.0
 11
4.0
 21
7.5
 31
0.0
  0
LINE
  5
153
  8
0
 10
3.0
 20
7.0
 30
0.0
 11
4.5
 21
7.0
 31
0.0
  0
LINE
  5
154
  8
0
 10
3.5
 20
7.5
 30
0.0
 11
3.0
 21
7.0
 31
0.0
  0
LINE
  5
155
  8
0
 10
3.5
 20
9.0
 30
0.0
 11
3.5
 21
7.5
 31
0.0
  0
LINE
  5
156
  8
0
 10
3.0
 20
2.75
 30
0.0
 11
2.5
 21
2.25
 31
0.0
  0
LINE
  5
157
  8
0
 10
2.0
 20
2.0
 30
0.0
 11
3.0
 21
3.0
 31
0.0
  0
LINE
  5
158
  8
0
 10
3.0
 20
11.0
 30
0.0
 11
3.0
 21
3.0
 31
0.0
  0
LINE
  5
159
  8
0
 10
2.990200000000014
 20
2.7400000000000091
 30
0.0
 11
7.0100000000000193
 21
2.7400000000000091
 31
0.0
  0
LINE
  5
15A
  8
0
 10
2.9817000000000169
 20
2.7300000000000169
 30
0.0
 11
7.0203999999999951
 21
2.7300000000000169
 31
0.0
  0
LINE
  5
15B
  8
0
 10
2.970899999999999
 20
2.719999999999998
 30
0.0
 11
7.0302000000000078
 21
2.719999999999998
 31
0.0
  0
LINE
  5
15C
  8
0
 10
2.9602000000000128
 20
2.7100000000000062
 30
0.0
 11
7.0400999999999954
 21
2.7100000000000062
 31
0.0
  0
LINE
  5
15D
  8
0
 10
2.9505000000000039
 20
2.7000000000000171
 30
0.0
 11
7.0500000000000123
 21
2.7000000000000171
 31
0.0
  0
LINE
  5
15E
  8
0
 10
2.938700000000011
 20
2.6899999999999959
 30
0.0
 11
7.0598999999999972
 21
2.6899999999999959
 31
0.0
  0
LINE
  5
15F
  8
0
 10
2.9312000000000169
 20
2.680000000000005
 30
0.0
 11
7.0703000000000022
 21
2.680000000000005
 31
0.0
  0
LINE
  5
160
  8
0
 10
2.9205000000000041
 20
2.670000000000015
 30
0.0
 11
7.080600000000004
 21
2.670000000000015
 31
0.0
  0
LINE
  5
161
  8
0
 10
2.9107999999999929
 20
2.6599999999999961
 30
0.0
 11
7.0904999999999907
 21
2.6599999999999961
 31
0.0
  0
LINE
  5
162
  8
0
 10
2.900100000000009
 20
2.6500000000000039
 30
0.0
 11
7.1004000000000076
 21
2.6500000000000039
 31
0.0
  0
LINE
  5
163
  8
0
 10
2.891500000000006
 20
2.6400000000000139
 30
0.0
 11
7.1098000000000079
 21
2.6400000000000139
 31
0.0
  0
LINE
  5
164
  8
0
 10
2.879700000000013
 20
2.629999999999995
 30
0.0
 11
7.1202000000000121
 21
2.629999999999995
 31
0.0
  0
LINE
  5
165
  8
0
 10
2.8701000000000061
 20
2.6200000000000032
 30
0.0
 11
7.1299999999999946
 21
2.6200000000000032
 31
0.0
  0
LINE
  5
166
  8
0
 10
2.8603999999999981
 20
2.6100000000000132
 30
0.0
 11
7.1399000000000123
 21
2.6100000000000132
 31
0.0
  0
LINE
  5
167
  8
0
 10
2.8517999999999968
 20
2.599999999999993
 30
0.0
 11
7.149799999999999
 21
2.599999999999993
 31
0.0
  0
LINE
  5
168
  8
0
 10
2.8425000000000011
 20
2.5900000000000021
 30
0.0
 11
7.1603000000000048
 21
2.5900000000000021
 31
0.0
  0
LINE
  5
169
  8
0
 10
2.8320999999999952
 20
2.5800000000000112
 30
0.0
 11
7.1699000000000126
 21
2.5800000000000112
 31
0.0
  0
LINE
  5
16A
  8
0
 10
2.8226999999999971
 20
2.5699999999999932
 30
0.0
 11
7.1804999999999941
 21
2.5699999999999932
 31
0.0
  0
LINE
  5
16B
  8
0
 10
2.8112000000000128
 20
2.5600000000000018
 30
0.0
 11
7.190100000000001
 21
2.5600000000000018
 31
0.0
  0
LINE
  5
16C
  8
0
 10
2.8019000000000172
 20
2.55000000000001
 30
0.0
 11
7.1997000000000071
 21
2.55000000000001
 31
0.0
  0
LINE
  5
16D
  8
0
 10
2.790400000000004
 20
2.5399999999999912
 30
0.0
 11
7.2104000000000212
 21
2.5399999999999912
 31
0.0
  0
LINE
  5
16E
  8
0
 10
2.782100000000014
 20
2.5299999999999998
 30
0.0
 11
7.2210000000000019
 21
2.5299999999999998
 31
0.0
  0
LINE
  5
16F
  8
0
 10
2.7707000000000042
 20
2.5200000000000089
 30
0.0
 11
7.2296000000000031
 21
2.5200000000000089
 31
0.0
  0
LINE
  5
170
  8
0
 10
2.7623000000000091
 20
2.510000000000018
 30
0.0
 11
7.2412999999999954
 21
2.510000000000018
 31
0.0
  0
LINE
  5
171
  8
0
 10
2.750900000000001
 20
2.5
 30
0.0
 11
7.2509000000000006
 21
2.5
 31
0.0
  0
LINE
  5
172
  8
0
 10
2.7426000000000088
 20
2.4900000000000091
 30
0.0
 11
7.2605000000000084
 21
2.4900000000000091
 31
0.0
  0
LINE
  5
173
  8
0
 10
2.7301000000000211
 20
2.4800000000000182
 30
0.0
 11
7.2701000000000127
 21
2.4800000000000182
 31
0.0
  0
LINE
  5
174
  8
0
 10
2.7218000000000009
 20
2.4699999999999971
 30
0.0
 11
7.2797000000000178
 21
2.4699999999999971
 31
0.0
  0
LINE
  5
175
  8
0
 10
2.7113999999999971
 20
2.4600000000000071
 30
0.0
 11
7.2914000000000092
 21
2.4600000000000071
 31
0.0
  0
LINE
  5
176
  8
0
 10
2.7009000000000181
 20
2.4500000000000171
 30
0.0
 11
7.299900000000008
 21
2.4500000000000171
 31
0.0
  0
LINE
  5
177
  8
0
 10
2.6895000000000091
 20
2.4399999999999959
 30
0.0
 11
7.3095000000000132
 21
2.4399999999999959
 31
0.0
  0
LINE
  5
178
  8
0
 10
2.6812000000000178
 20
2.430000000000005
 30
0.0
 11
7.321300000000007
 21
2.430000000000005
 31
0.0
  0
LINE
  5
179
  8
0
 10
2.6708000000000141
 20
2.420000000000015
 30
0.0
 11
7.3309000000000131
 21
2.420000000000015
 31
0.0
  0
LINE
  5
17A
  8
0
 10
2.660400000000009
 20
2.4099999999999961
 30
0.0
 11
7.3404999999999907
 21
2.4099999999999961
 31
0.0
  0
LINE
  5
17B
  8
0
 10
2.6500000000000039
 20
2.4000000000000039
 30
0.0
 11
7.3500999999999967
 21
2.4000000000000039
 31
0.0
  0
LINE
  5
17C
  8
0
 10
2.6406000000000049
 20
2.3900000000000139
 30
0.0
 11
7.3607000000000076
 21
2.3900000000000139
 31
0.0
  0
LINE
  5
17D
  8
0
 10
2.6302000000000021
 20
2.379999999999995
 30
0.0
 11
7.3703000000000118
 21
2.379999999999995
 31
0.0
  0
LINE
  5
17E
  8
0
 10
2.621900000000009
 20
2.3700000000000032
 30
0.0
 11
7.3810000000000002
 21
2.3700000000000032
 31
0.0
  0
LINE
  5
17F
  8
0
 10
2.6094000000000221
 20
2.3600000000000132
 30
0.0
 11
7.3916000000000111
 21
2.3600000000000132
 31
0.0
  0
LINE
  5
180
  8
0
 10
2.6011000000000011
 20
2.349999999999993
 30
0.0
 11
7.4002000000000132
 21
2.349999999999993
 31
0.0
  0
LINE
  5
181
  8
0
 10
2.5896000000000181
 20
2.3400000000000021
 30
0.0
 11
7.4119000000000019
 21
2.3400000000000021
 31
0.0
  0
LINE
  5
182
  8
0
 10
2.581299999999997
 20
2.3300000000000112
 30
0.0
 11
7.4215000000000071
 21
2.3300000000000112
 31
0.0
  0
LINE
  5
183
  8
0
 10
2.5698000000000141
 20
2.3199999999999932
 30
0.0
 11
7.4311000000000131
 21
2.3199999999999932
 31
0.0
  0
LINE
  5
184
  8
0
 10
2.5614999999999948
 20
2.3100000000000018
 30
0.0
 11
7.4416999999999973
 21
2.3100000000000018
 31
0.0
  0
LINE
  5
185
  8
0
 10
2.5501000000000138
 20
2.30000000000001
 30
0.0
 11
7.4524000000000123
 21
2.30000000000001
 31
0.0
  0
LINE
  5
186
  8
0
 10
2.5407000000000148
 20
2.2899999999999912
 30
0.0
 11
7.4609000000000076
 21
2.2899999999999912
 31
0.0
  0
LINE
  5
187
  8
0
 10
2.529300000000005
 20
2.2799999999999998
 30
0.0
 11
7.4705000000000137
 21
2.2799999999999998
 31
0.0
  0
LINE
  5
188
  8
0
 10
2.519900000000006
 20
2.2700000000000089
 30
0.0
 11
7.4812000000000012
 21
2.2700000000000089
 31
0.0
  0
LINE
  5
189
  8
0
 10
2.5095000000000018
 20
2.260000000000018
 30
0.0
 11
7.4908000000000081
 21
2.260000000000018
 31
0.0
  0
LINE
  5
18A
  8
0
 10
7.0
 20
2.75
 30
0.0
 11
3.0
 21
2.75
 31
0.0
  0
LINE
  5
18B
  8
0
 10
2.5
 20
2.25
 30
0.0
 11
7.5
 21
2.25
 31
0.0
  0
LINE
  5
18C
  8
0
 10
4.0
 20
8.0
 30
0.0
 11
6.0
 21
8.0
 31
0.0
  0
LINE
  5
18D
  8
0
 10
6.0
 20
8.5
 30
0.0
 11
4.0
 21
8.5
 31
0.0
  0
LINE
  5
18E
  8
0
 10
3.0
 20
3.0
 30
0.0
 11
7.0
 21
3.0
 31
0.0
  0
POLYLINE
  5
18F
  8
0
 66
     1
 10
0.0
 20
0.0
 30
0.0
 70
     1
  0
VERTEX
  5
96A
  8
0
 10
2.0
 20
2.0
 30
0.0
  0
VERTEX
  5
96B
  8
0
 10
2.0
 20
11.0
 30
0.0
  0
VERTEX
  5
96C
  8
0
 10
8.0
 20
11.0
 30
0.0
  0
VERTEX
  5
96D
  8
0
 10
8.0
 20
2.0
 30
0.0
  0
SEQEND
  5
96E
  8
0
  0
POLYLINE
  5
190
  8
0
 66
     1
 10
0.0
 20
0.0
 30
0.0
 70
     1
  0
VERTEX
  5
96F
  8
0
 10
2.0
 20
12.0
 30
0.0
  0
VERTEX
  5
970
  8
0
 10
2.0
 20
16.0
 30
0.0
  0
VERTEX
  5
971
  8
0
 10
8.0
 20
16.0
 30
0.0
  0
VERTEX
  5
972
  8
0
 10
8.0
 20
12.0
 30
0.0
  0
SEQEND
  5
973
  8
0
  0
POLYLINE
  5
191
  8
0
 66
     1
 10
0.0
 20
0.0
 30
0.0
 70
     1
  0
VERTEX
  5
974
  8
0
 10
1.0
 20
1.0
 30
0.0
  0
VERTEX
  5
975
  8
0
 10
1.0
 20
17.0
 30
0.0
  0
VERTEX
  5
976
  8
0
 10
9.0
 20
17.0
 30
0.0
  0
VERTEX
  5
977
  8
0
 10
9.0
 20
1.0
 30
0.0
  0
SEQEND
  5
978
  8
0
  0
POLYLINE
  5
192
  8
0
 66
     1
 10
0.0
 20
0.0
 30
0.0
 70
     1
  0
VERTEX
  5
979
  8
0
 10
0.0
 20
0.0
 30
0.0
  0
VERTEX
  5
97A
  8
0
 10
0.0
 20
18.0
 30
0.0
  0
VERTEX
  5
97B
  8
0
 10
10.0
 20
18.0
 30
0.0
  0
VERTEX
  5
97C
  8
0
 10
10.0
 20
0.0
 30
0.0
  0
SEQEND
  5
97D
  8
0
  0
ENDBLK
  5
194
  8
0
  0
BLOCK
  8
0
  2
KÜCHENBLOCK_-_2100_X_2400_
 70
     2
 10
0.0
 20
0.0
 30
0.0
  3
KÜCHENBLOCK_-_2100_X_2400_
  1
KITCHEN_LAYOUT_7X8_PARTIAL_WALL
  0
LINE
  5
19E
  8
0
 10
0.0
 20
24.0
 30
0.0
 11
96.0
 21
24.0
 31
0.0
  0
LINE
  5
19F
  8
0
 10
96.0
 20
0.0
 30
0.0
 11
0.0
 21
0.0
 31
0.0
  0
LINE
  5
1A0
  8
0
 10
0.0
 20
0.0
 30
0.0
 11
0.0
 21
24.0
 31
0.0
  0
LINE
  5
1A1
  8
0
 10
96.0
 20
24.0
 30
0.0
 11
96.0
 21
0.0
 31
0.0
  0
LINE
  5
1A4
  8
0
 10
96.0
 20
60.0
 30
0.0
 11
34.0
 21
60.0
 31
0.0
  0
LINE
  5
1A5
  8
0
 10
34.0
 20
84.0
 30
0.0
 11
96.0
 21
84.0
 31
0.0
  0
LINE
  5
1A6
  8
0
 10
34.0
 20
60.0
 30
0.0
 11
34.0
 21
84.0
 31
0.0
  0
LINE
  5
1A7
  8
0
 10
96.0
 20
84.0
 30
0.0
 11
96.0
 21
60.0
 31
0.0
  0
ARC
  5
1A8
  8
0
 10
34.5
 20
6.5
 30
0.0
 40
1.0
 50
180.0
 51
270.0
  0
ARC
  5
1A9
  8
0
 10
33.5
 20
1.5
 30
0.0
 40
1.5
 50
180.0
 51
270.0
  0
CIRCLE
  5
1AA
  8
0
 10
40.499999999999993
 20
12.5
 30
0.0
 40
0.5
  0
CIRCLE
  5
1AB
  8
0
 10
40.499999999999993
 20
12.5
 30
0.0
 40
1.0
  0
ARC
  5
1AC
  8
0
 10
34.5
 20
18.5
 30
0.0
 40
1.0
 50
90.0
 51
180.0
  0
ARC
  5
1AD
  8
0
 10
33.5
 20
19.5
 30
0.0
 40
1.5
 50
90.0
 51
180.0
  0
POLYLINE
  5
1AE
  8
0
 66
     1
 10
0.0
 20
0.0
 30
0.0
  0
VERTEX
  5
980
  8
0
 10
33.5
 20
6.5
 30
0.0
  0
VERTEX
  5
981
  8
0
 10
33.5
 20
18.5
 30
0.0
  0
SEQEND
  5
982
  8
0
  0
POLYLINE
  5
1AF
  8
0
 66
     1
 10
0.0
 20
0.0
 30
0.0
  0
VERTEX
  5
983
  8
0
 10
32.0
 20
1.5
 30
0.0
  0
VERTEX
  5
984
  8
0
 10
32.0
 20
19.5
 30
0.0
  0
SEQEND
  5
985
  8
0
  0
ARC
  5
1B0
  8
0
 10
46.250000000000021
 20
6.5
 30
0.0
 40
1.0
 50
270.0
 51
0.0
  0
ARC
  5
1B1
  8
0
 10
49.750000000000028
 20
6.5
 30
0.0
 40
1.0
 50
180.0
 51
270.0
  0
ARC
  5
1B2
  8
0
 10
61.500000000000028
 20
6.5
 30
0.0
 40
1.0
 50
270.0
 51
0.0
  0
ARC
  5
1B3
  8
0
 10
62.500000000000028
 20
1.5
 30
0.0
 40
1.5
 50
270.0
 51
0.0
  0
POLYLINE
  5
1B4
  8
0
 66
     1
 10
0.0
 20
0.0
 30
0.0
  0
VERTEX
  5
986
  8
0
 10
61.500000000000028
 20
5.5
 30
0.0
  0
VERTEX
  5
987
  8
0
 10
49.750000000000028
 20
5.5
 30
0.0
  0
SEQEND
  5
988
  8
0
  0
ARC
  5
1B5
  8
0
 10
46.250000000000021
 20
18.5
 30
0.0
 40
1.0
 50
0.0
 51
90.0
  0
ARC
  5
1B6
  8
0
 10
49.750000000000028
 20
18.5
 30
0.0
 40
1.0
 50
90.0
 51
180.0
  0
ARC
  5
1B7
  8
0
 10
61.500000000000028
 20
18.5
 30
0.0
 40
1.0
 50
0.0
 51
90.0
  0
ARC
  5
1B8
  8
0
 10
62.500000000000028
 20
19.5
 30
0.0
 40
1.5
 50
0.0
 51
90.0
  0
CIRCLE
  5
1B9
  8
0
 10
55.500000000000028
 20
12.5
 30
0.0
 40
0.5
  0
CIRCLE
  5
1BA
  8
0
 10
55.500000000000028
 20
12.5
 30
0.0
 40
1.0
  0
POLYLINE
  5
1BB
  8
0
 66
     1
 10
0.0
 20
0.0
 30
0.0
  0
VERTEX
  5
989
  8
0
 10
49.750000000000028
 20
19.5
 30
0.0
  0
VERTEX
  5
98A
  8
0
 10
61.500000000000028
 20
19.5
 30
0.0
  0
SEQEND
  5
98B
  8
0
  0
LINE
  5
1BC
  8
0
 10
47.250000000000028
 20
6.5
 30
0.0
 11
47.250000000000028
 21
18.5
 31
0.0
  0
LINE
  5
1BD
  8
0
 10
48.750000000000028
 20
18.5
 30
0.0
 11
48.750000000000028
 21
6.5
 31
0.0
  0
POLYLINE
  5
1BE
  8
0
 66
     1
 10
0.0
 20
0.0
 30
0.0
  0
VERTEX
  5
98C
  8
0
 10
62.500000000000028
 20
18.5
 30
0.0
  0
VERTEX
  5
98D
  8
0
 10
62.500000000000028
 20
6.5
 30
0.0
  0
SEQEND
  5
98E
  8
0
  0
POLYLINE
  5
1BF
  8
0
 66
     1
 10
0.0
 20
0.0
 30
0.0
  0
VERTEX
  5
98F
  8
0
 10
64.000000000000028
 20
19.5
 30
0.0
  0
VERTEX
  5
990
  8
0
 10
64.000000000000028
 20
1.5
 30
0.0
  0
SEQEND
  5
991
  8
0
  0
POLYLINE
  5
1C0
  8
0
 66
     1
 10
0.0
 20
0.0
 30
0.0
  0
VERTEX
  5
992
  8
0
 10
46.250000000000021
 20
5.5
 30
0.0
  0
VERTEX
  5
993
  8
0
 10
34.5
 20
5.5
 30
0.0
  0
SEQEND
  5
994
  8
0
  0
POLYLINE
  5
1C1
  8
0
 66
     1
 10
0.0
 20
0.0
 30
0.0
  0
VERTEX
  5
995
  8
0
 10
34.5
 20
19.5
 30
0.0
  0
VERTEX
  5
996
  8
0
 10
46.250000000000021
 20
19.5
 30
0.0
  0
SEQEND
  5
997
  8
0
  0
POLYLINE
  5
1C2
  8
0
 66
     1
 10
0.0
 20
0.0
 30
0.0
  0
VERTEX
  5
998
  8
0
 10
33.5
 20
21.0
 30
0.0
  0
VERTEX
  5
999
  8
0
 10
62.500000000000028
 20
21.0
 30
0.0
  0
SEQEND
  5
99A
  8
0
  0
POLYLINE
  5
1C3
  8
0
 66
     1
 10
0.0
 20
0.0
 30
0.0
  0
VERTEX
  5
99B
  8
0
 10
62.500000000000028
 20
0.0
 30
0.0
  0
VERTEX
  5
99C
  8
0
 10
33.5
 20
0.0
 30
0.0
  0
SEQEND
  5
99D
  8
0
  0
LINE
  5
1C4
  8
0
 10
64.000000000000028
 20
4.0
 30
0.0
 11
32.0
 21
4.0
 31
0.0
  0
LINE
  5
1C5
  8
0
 10
30.999999999999989
 20
54.999959999999987
 30
0.0
 11
30.999999999999989
 21
55.999959999999987
 31
0.0
  0
LINE
  5
1C6
  8
0
 10
31.999999999999989
 20
54.999959999999987
 30
0.0
 11
30.999999999999989
 21
54.999959999999987
 31
0.0
  0
LINE
  5
1C7
  8
0
 10
31.999999999999989
 20
55.999959999999987
 30
0.0
 11
31.999999999999989
 21
54.999959999999987
 31
0.0
  0
LINE
  5
1C8
  8
0
 10
-0.0000000000000071
 20
56.999959999999987
 30
0.0
 11
32.999999999999993
 21
56.999959999999987
 31
0.0
  0
POLYLINE
  5
1C9
  8
0
 66
     1
 10
0.0
 20
0.0
 30
0.0
 70
     1
  0
VERTEX
  5
99E
  8
0
 10
-0.0000000000000071
 20
55.999959999999987
 30
0.0
  0
VERTEX
  5
99F
  8
0
 10
-0.0000000000000071
 20
84.0
 30
0.0
  0
VERTEX
  5
9A0
  8
0
 10
32.999999999999993
 20
84.0
 30
0.0
  0
VERTEX
  5
9A1
  8
0
 10
32.999999999999993
 20
55.999959999999987
 30
0.0
  0
SEQEND
  5
9A2
  8
0
  0
CIRCLE
  5
1CA
  8
0
 10
89.0
 20
74.999999700000004
 30
0.0
 40
1.0
  0
CIRCLE
  5
1CB
  8
0
 10
89.0
 20
74.999999700000004
 30
0.0
 40
3.0
  0
CIRCLE
  5
1CC
  8
0
 10
89.0
 20
74.999999700000004
 30
0.0
 40
2.0
  0
LINE
  5
1CD
  8
0
 10
89.0
 20
59.999995999999982
 30
0.0
 11
89.0
 21
58.999996000000003
 31
0.0
  0
LINE
  5
1CE
  8
0
 10
87.0
 20
58.999996000000003
 30
0.0
 11
87.0
 21
59.999995999999982
 31
0.0
  0
CIRCLE
  5
1CF
  8
0
 10
89.0
 20
66.0
 30
0.0
 40
2.0
  0
CIRCLE
  5
1D0
  8
0
 10
89.0
 20
66.0
 30
0.0
 40
1.0
  0
CIRCLE
  5
1D1
  8
0
 10
89.0
 20
66.0
 30
0.0
 40
4.0
  0
CIRCLE
  5
1D2
  8
0
 10
89.0
 20
66.0
 30
0.0
 40
3.0
  0
CIRCLE
  5
1D3
  8
0
 10
80.000002999999978
 20
74.999999700000004
 30
0.0
 40
1.0
  0
CIRCLE
  5
1D4
  8
0
 10
80.000002999999978
 20
74.999999700000004
 30
0.0
 40
3.0
  0
CIRCLE
  5
1D5
  8
0
 10
80.000002999999978
 20
74.999999700000004
 30
0.0
 40
2.0
  0
CIRCLE
  5
1D6
  8
0
 10
80.000002999999978
 20
66.0
 30
0.0
 40
1.0
  0
LINE
  5
1D7
  8
0
 10
82.000003999999976
 20
58.999996000000003
 30
0.0
 11
82.000003999999976
 21
59.999995999999982
 31
0.0
  0
LINE
  5
1D8
  8
0
 10
80.000002999999978
 20
59.999995999999982
 30
0.0
 11
80.000002999999978
 21
58.999996000000003
 31
0.0
  0
CIRCLE
  5
1D9
  8
0
 10
80.000002999999978
 20
66.0
 30
0.0
 40
2.0
  0
CIRCLE
  5
1DA
  8
0
 10
80.000002999999978
 20
66.0
 30
0.0
 40
3.0
  0
LINE
  5
1DB
  8
0
 10
74.000003400000011
 20
81.0
 30
0.0
 11
95.0
 21
81.0
 31
0.0
  0
POLYLINE
  5
1DC
  8
0
 66
     1
 10
0.0
 20
0.0
 30
0.0
 70
     1
  0
VERTEX
  5
9A3
  8
0
 10
76.000002999999964
 20
57.999995999999989
 30
0.0
  0
VERTEX
  5
9A4
  8
0
 10
76.000002999999964
 20
58.999996000000003
 30
0.0
  0
VERTEX
  5
9A5
  8
0
 10
93.0
 20
58.999996000000003
 30
0.0
  0
VERTEX
  5
9A6
  8
0
 10
93.0
 20
57.999995999999989
 30
0.0
  0
SEQEND
  5
9A7
  8
0
  0
CIRCLE
  5
1DD
  8
0
 10
80.000002999999978
 20
74.999999700000004
 30
0.0
 40
4.0
  0
POLYLINE
  5
1DE
  8
0
 66
     1
 10
0.0
 20
0.0
 30
0.0
 70
     1
  0
VERTEX
  5
9A8
  8
0
 10
74.000003400000011
 20
59.999995999999982
 30
0.0
  0
VERTEX
  5
9A9
  8
0
 10
74.000003400000011
 20
84.0
 30
0.0
  0
VERTEX
  5
9AA
  8
0
 10
95.0
 20
84.0
 30
0.0
  0
VERTEX
  5
9AB
  8
0
 10
95.0
 20
59.999995999999982
 30
0.0
  0
SEQEND
  5
9AC
  8
0
  0
LINE
  5
1DF
  8
0
 10
27.367520651087769
 20
24.0
 30
0.0
 11
62.867517764336242
 21
59.499997113248469
 31
0.0
  0
LINE
  5
1E0
  8
0
 10
18.882239276849191
 20
24.0
 30
0.0
 11
54.382237238625642
 21
59.49999796177643
 31
0.0
  0
LINE
  5
1E1
  8
0
 10
10.39695790261063
 20
24.0
 30
0.0
 11
45.896956712915042
 21
59.499998810304433
 31
0.0
  0
LINE
  5
1E2
  8
0
 10
1.911676528372058
 20
24.0
 30
0.0
 11
32.91163652837205
 21
54.999959999999987
 31
0.0
  0
LINE
  5
1E3
  8
0
 10
33.025246417648908
 20
55.11356988927686
 30
0.0
 11
37.411676187204463
 21
59.499999658832401
 31
0.0
  0
LINE
  5
1E4
  8
0
 10
-0.0000000000000107
 20
30.573604845866509
 30
0.0
 11
24.426355154133478
 21
54.999959999999987
 31
0.0
  0
LINE
  5
1E5
  8
0
 10
-0.0000000000000107
 20
39.058886220105073
 30
0.0
 11
15.94107377989492
 21
54.999959999999987
 31
0.0
  0
LINE
  5
1E6
  8
0
 10
-0.0000000000000071
 20
47.544167594343662
 30
0.0
 11
7.4557924056563474
 21
54.999959999999987
 31
0.0
  0
LINE
  5
1E7
  8
0
 10
35.852802025326319
 20
24.0
 30
0.0
 11
71.35279829004682
 21
59.499996264720487
 31
0.0
  0
LINE
  5
1E8
  8
0
 10
44.338083399564887
 20
24.0
 30
0.0
 11
77.83807939956489
 21
57.499995999999982
 31
0.0
  0
LINE
  5
1E9
  8
0
 10
52.823364773803469
 20
24.0
 30
0.0
 11
86.323360773803458
 21
57.499995999999982
 31
0.0
  0
LINE
  5
1EA
  8
0
 10
61.30864614804203
 20
24.0
 30
0.0
 11
96.000000000000043
 21
58.69135385195797
 31
0.0
  0
LINE
  5
1EB
  8
0
 10
69.793927522280612
 20
24.0
 30
0.0
 11
96.0
 21
50.206072477719388
 31
0.0
  0
LINE
  5
1EC
  8
0
 10
78.279208896519179
 20
24.0
 30
0.0
 11
96.0
 21
41.720791103480813
 31
0.0
  0
LINE
  5
1ED
  8
0
 10
86.764490270757776
 20
24.0
 30
0.0
 11
96.0
 21
33.235509729242231
 31
0.0
  0
LINE
  5
1EE
  8
0
 10
95.249771644996358
 20
24.0
 30
0.0
 11
96.0
 21
24.750228355003639
 31
0.0
  0
LINE
  5
1EF
  8
0
 10
59.228316995509317
 20
24.0
 30
0.0
 11
28.228356995509301
 21
54.999959999999987
 31
0.0
  0
LINE
  5
1F0
  8
0
 10
50.743035621270742
 20
24.0
 30
0.0
 11
19.74307562127073
 21
54.999959999999987
 31
0.0
  0
LINE
  5
1F1
  8
0
 10
42.257754247032167
 20
24.0
 30
0.0
 11
11.257794247032161
 21
54.999959999999987
 31
0.0
  0
LINE
  5
1F2
  8
0
 10
33.772472872793593
 20
24.0
 30
0.0
 11
2.7725128727936008
 21
54.999959999999987
 31
0.0
  0
LINE
  5
1F3
  8
0
 10
25.287191498555039
 20
24.0
 30
0.0
 11
-0.0000000000000071
 21
49.287191498555039
 31
0.0
  0
LINE
  5
1F4
  8
0
 10
16.801910124316461
 20
24.0
 30
0.0
 11
-0.0000000000000071
 21
40.801910124316457
 31
0.0
  0
LINE
  5
1F5
  8
0
 10
8.3166287500778964
 20
24.0
 30
0.0
 11
-0.0000000000000071
 21
32.316628750077911
 31
0.0
  0
LINE
  5
1F6
  8
0
 10
67.713598369747899
 20
24.0
 30
0.0
 11
33.675202065757311
 21
58.038396303990567
 31
0.0
  0
LINE
  5
1F7
  8
0
 10
76.198879743986453
 20
24.0
 30
0.0
 11
40.698880413874427
 21
59.499999330112018
 31
0.0
  0
LINE
  5
1F8
  8
0
 10
84.684161118225035
 20
24.0
 30
0.0
 11
49.184162636641162
 21
59.49999848158388
 31
0.0
  0
LINE
  5
1F9
  8
0
 10
93.169442492463588
 20
24.0
 30
0.0
 11
57.669444859407882
 21
59.499997633055713
 31
0.0
  0
LINE
  5
1FA
  8
0
 10
95.999999999999957
 20
29.65472386670217
 30
0.0
 11
66.154727082174603
 21
59.499996784527568
 31
0.0
  0
LINE
  5
1FB
  8
0
 10
96.0
 20
38.140005240940731
 30
0.0
 11
76.640009240940714
 21
57.499995999999982
 31
0.0
  0
LINE
  5
1FC
  8
0
 10
96.0
 20
46.625286615179313
 30
0.0
 11
85.125290615179296
 21
57.499995999999982
 31
0.0
  0
LINE
  5
1FD
  8
0
 10
96.0
 20
55.110567989417859
 30
0.0
 11
93.569107424278741
 21
57.541460565139111
 31
0.0
  0
LINE
  5
1FE
  8
0
 10
-0.098894018957985
 20
-5.0
 30
0.0
 11
3.9011059810420221
 21
-1.0
 31
0.0
  0
LINE
  5
1FF
  8
0
 10
89.901105981041994
 20
85.0
 30
0.0
 11
93.901105981041994
 21
89.0
 31
0.0
  0
LINE
  5
200
  8
0
 10
-2.22021436251763
 20
-5.0
 30
0.0
 11
1.7797856374823759
 21
-1.0
 31
0.0
  0
LINE
  5
201
  8
0
 10
87.779785637482377
 20
85.0
 30
0.0
 11
91.779785637482377
 21
89.0
 31
0.0
  0
LINE
  5
202
  8
0
 10
-4.3415347060772671
 20
-5.0
 30
0.0
 11
-0.3415347060772618
 21
-1.0
 31
0.0
  0
LINE
  5
203
  8
0
 10
85.658465293922717
 20
85.0
 30
0.0
 11
89.658465293922717
 21
89.0
 31
0.0
  0
LINE
  5
204
  8
0
 10
-5.0
 20
-3.5371449503630839
 30
0.0
 11
-1.0000000000000071
 21
0.4628550496369144
 31
0.0
  0
LINE
  5
205
  8
0
 10
83.537144950363086
 20
85.0
 30
0.0
 11
87.537144950363114
 21
89.0
 31
0.0
  0
LINE
  5
206
  8
0
 10
-5.0
 20
-1.4158246068034539
 30
0.0
 11
-1.0000000000000071
 21
2.5841753931965439
 31
0.0
  0
LINE
  5
207
  8
0
 10
81.415824606803454
 20
85.0
 30
0.0
 11
85.415824606803454
 21
89.0
 31
0.0
  0
LINE
  5
208
  8
0
 10
-5.0
 20
0.7054957367561912
 30
0.0
 11
-1.0000000000000071
 21
4.7054957367561983
 31
0.0
  0
LINE
  5
209
  8
0
 10
79.294504263243795
 20
85.0
 30
0.0
 11
83.294504263243795
 21
89.0
 31
0.0
  0
LINE
  5
20A
  8
0
 10
-5.0
 20
2.8268160803158362
 30
0.0
 11
-1.0000000000000071
 21
6.8268160803158349
 31
0.0
  0
LINE
  5
20B
  8
0
 10
77.173183919684149
 20
85.0
 30
0.0
 11
81.173183919684149
 21
89.0
 31
0.0
  0
LINE
  5
20C
  8
0
 10
-5.0
 20
4.9481364238754741
 30
0.0
 11
-1.0000000000000071
 21
8.9481364238754821
 31
0.0
  0
LINE
  5
20D
  8
0
 10
75.051863576124504
 20
85.0
 30
0.0
 11
79.051863576124489
 21
89.0
 31
0.0
  0
LINE
  5
20E
  8
0
 10
-5.0
 20
7.0694567674351196
 30
0.0
 11
-1.0
 21
11.06945676743511
 31
0.0
  0
LINE
  5
20F
  8
0
 10
72.930543232564872
 20
85.0
 30
0.0
 11
76.930543232564872
 21
89.0
 31
0.0
  0
LINE
  5
210
  8
0
 10
-5.0
 20
9.190777110994766
 30
0.0
 11
-1.0
 21
13.190777110994761
 31
0.0
  0
LINE
  5
211
  8
0
 10
70.809222889005227
 20
85.0
 30
0.0
 11
74.809222889005227
 21
89.0
 31
0.0
  0
LINE
  5
212
  8
0
 10
-5.0
 20
11.312097454554401
 30
0.0
 11
-1.0
 21
15.312097454554401
 31
0.0
  0
LINE
  5
213
  8
0
 10
68.687902545445581
 20
85.0
 30
0.0
 11
72.687902545445581
 21
89.0
 31
0.0
  0
LINE
  5
214
  8
0
 10
-5.0000000000000062
 20
13.43341779811405
 30
0.0
 11
-1.0
 21
17.43341779811405
 31
0.0
  0
LINE
  5
215
  8
0
 10
66.566582201885936
 20
85.0
 30
0.0
 11
70.566582201885964
 21
89.0
 31
0.0
  0
LINE
  5
216
  8
0
 10
-5.0000000000000062
 20
15.55473814167369
 30
0.0
 11
-1.0
 21
19.554738141673688
 31
0.0
  0
LINE
  5
217
  8
0
 10
64.445261858326305
 20
85.0
 30
0.0
 11
68.445261858326305
 21
89.0
 31
0.0
  0
LINE
  5
218
  8
0
 10
-5.0000000000000062
 20
17.67605848523332
 30
0.0
 11
-1.0
 21
21.676058485233341
 31
0.0
  0
LINE
  5
219
  8
0
 10
62.323941514766652
 20
85.0
 30
0.0
 11
66.323941514766659
 21
89.0
 31
0.0
  0
LINE
  5
21A
  8
0
 10
-5.0000000000000062
 20
19.797378828792962
 30
0.0
 11
-1.0
 21
23.797378828792979
 31
0.0
  0
LINE
  5
21B
  8
0
 10
60.202621171207007
 20
85.0
 30
0.0
 11
64.202621171207014
 21
89.0
 31
0.0
  0
LINE
  5
21C
  8
0
 10
-5.0000000000000062
 20
21.918699172352621
 30
0.0
 11
-2.918699172352623
 21
24.0
 31
0.0
  0
LINE
  5
21D
  8
0
 10
58.081300827647368
 20
85.0
 30
0.0
 11
62.081300827647361
 21
89.0
 31
0.0
  0
LINE
  5
21E
  8
0
 10
55.959980484087708
 20
85.0
 30
0.0
 11
59.959980484087737
 21
89.0
 31
0.0
  0
LINE
  5
21F
  8
0
 10
53.838660140528091
 20
85.0
 30
0.0
 11
57.838660140528098
 21
89.0
 31
0.0
  0
LINE
  5
220
  8
0
 10
51.71733979696846
 20
85.0
 30
0.0
 11
55.71733979696846
 21
89.0
 31
0.0
  0
LINE
  5
221
  8
0
 10
49.596019453408822
 20
85.0
 30
0.0
 11
53.596019453408807
 21
89.0
 31
0.0
  0
LINE
  5
222
  8
0
 10
47.474699109849169
 20
85.0
 30
0.0
 11
51.474699109849162
 21
89.0
 31
0.0
  0
LINE
  5
223
  8
0
 10
45.353378766289516
 20
85.0
 30
0.0
 11
49.353378766289531
 21
89.0
 31
0.0
  0
LINE
  5
224
  8
0
 10
43.232058422729857
 20
85.0
 30
0.0
 11
47.232058422729878
 21
89.0
 31
0.0
  0
LINE
  5
225
  8
0
 10
41.110738079170218
 20
85.0
 30
0.0
 11
45.11073807917024
 21
89.0
 31
0.0
  0
LINE
  5
226
  8
0
 10
38.989417735610601
 20
85.0
 30
0.0
 11
42.989417735610601
 21
89.0
 31
0.0
  0
LINE
  5
227
  8
0
 10
36.868097392050949
 20
85.0
 30
0.0
 11
40.868097392050949
 21
89.0
 31
0.0
  0
LINE
  5
228
  8
0
 10
34.746777048491303
 20
85.0
 30
0.0
 11
38.74677704849131
 21
89.0
 31
0.0
  0
LINE
  5
229
  8
0
 10
32.625456704931658
 20
85.0
 30
0.0
 11
36.625456704931658
 21
89.0
 31
0.0
  0
LINE
  5
22A
  8
0
 10
30.504136361372019
 20
85.0
 30
0.0
 11
34.504136361372034
 21
89.0
 31
0.0
  0
LINE
  5
22B
  8
0
 10
28.382816017812381
 20
85.0
 30
0.0
 11
32.382816017812381
 21
89.0
 31
0.0
  0
LINE
  5
22C
  8
0
 10
-2.738544325747255
 20
55.999959999999987
 30
0.0
 11
-1.0000000000000071
 21
57.73850432574725
 31
0.0
  0
LINE
  5
22D
  8
0
 10
26.261495674252739
 20
85.0
 30
0.0
 11
30.261495674252739
 21
89.0
 31
0.0
  0
LINE
  5
22E
  8
0
 10
-4.8598646693069014
 20
55.999959999999987
 30
0.0
 11
-1.0000000000000071
 21
59.859824669306889
 31
0.0
  0
LINE
  5
22F
  8
0
 10
24.140175330693079
 20
85.0
 30
0.0
 11
28.140175330693079
 21
89.0
 31
0.0
  0
LINE
  5
230
  8
0
 10
-5.0000000000000062
 20
57.981145012866527
 30
0.0
 11
-1.0000000000000071
 21
61.981145012866527
 31
0.0
  0
LINE
  5
231
  8
0
 10
22.018854987133452
 20
85.0
 30
0.0
 11
26.018854987133452
 21
89.0
 31
0.0
  0
LINE
  5
232
  8
0
 10
-5.0000000000000062
 20
60.10246535642618
 30
0.0
 11
-1.0000000000000071
 21
64.10246535642618
 31
0.0
  0
LINE
  5
233
  8
0
 10
19.897534643573799
 20
85.0
 30
0.0
 11
23.89753464357381
 21
89.0
 31
0.0
  0
LINE
  5
234
  8
0
 10
-5.0000000000000062
 20
62.223785699985818
 30
0.0
 11
-1.0000000000000071
 21
66.223785699985825
 31
0.0
  0
LINE
  5
235
  8
0
 10
17.776214300014161
 20
85.0
 30
0.0
 11
21.776214300014171
 21
89.0
 31
0.0
  0
LINE
  5
236
  8
0
 10
-5.0000000000000062
 20
64.345106043545471
 30
0.0
 11
-1.0000000000000071
 21
68.345106043545471
 31
0.0
  0
LINE
  5
237
  8
0
 10
15.65489395645452
 20
85.0
 30
0.0
 11
19.654893956454529
 21
89.0
 31
0.0
  0
LINE
  5
238
  8
0
 10
-5.0000000000000062
 20
66.466426387105116
 30
0.0
 11
-1.0000000000000071
 21
70.466426387105116
 31
0.0
  0
LINE
  5
239
  8
0
 10
13.53357361289488
 20
85.0
 30
0.0
 11
17.53357361289488
 21
89.0
 31
0.0
  0
LINE
  5
23A
  8
0
 10
-5.0000000000000062
 20
68.587746730664733
 30
0.0
 11
-1.0000000000000071
 21
72.587746730664747
 31
0.0
  0
LINE
  5
23B
  8
0
 10
11.412253269335229
 20
85.0
 30
0.0
 11
15.412253269335221
 21
89.0
 31
0.0
  0
LINE
  5
23C
  8
0
 10
-5.0000000000000062
 20
70.709067074224393
 30
0.0
 11
-1.0000000000000071
 21
74.709067074224393
 31
0.0
  0
LINE
  5
23D
  8
0
 10
9.2909329257755982
 20
85.0
 30
0.0
 11
13.2909329257756
 21
89.0
 31
0.0
  0
LINE
  5
23E
  8
0
 10
-5.0000000000000062
 20
72.830387417784038
 30
0.0
 11
-1.0000000000000071
 21
76.830387417784024
 31
0.0
  0
LINE
  5
23F
  8
0
 10
7.1696125822159606
 20
85.0
 30
0.0
 11
11.169612582215951
 21
89.0
 31
0.0
  0
LINE
  5
240
  8
0
 10
-5.0000000000000062
 20
74.95170776134367
 30
0.0
 11
-1.0000000000000071
 21
78.95170776134367
 31
0.0
  0
LINE
  5
241
  8
0
 10
5.048292238656316
 20
85.0
 30
0.0
 11
9.0482922386563231
 21
89.0
 31
0.0
  0
LINE
  5
242
  8
0
 10
-5.0000000000000062
 20
77.073028104903315
 30
0.0
 11
-1.0000000000000071
 21
81.073028104903315
 31
0.0
  0
LINE
  5
243
  8
0
 10
2.9269718950966692
 20
85.0
 30
0.0
 11
6.9269718950966768
 21
89.0
 31
0.0
  0
LINE
  5
244
  8
0
 10
-5.0000000000000062
 20
79.194348448462947
 30
0.0
 11
-1.0000000000000071
 21
83.194348448462975
 31
0.0
  0
LINE
  5
245
  8
0
 10
0.8056515515370319
 20
85.0
 30
0.0
 11
4.8056515515370322
 21
89.0
 31
0.0
  0
LINE
  5
246
  8
0
 10
-5.0000000000000062
 20
81.315668792022578
 30
0.0
 11
2.684331207977392
 21
89.0
 31
0.0
  0
LINE
  5
247
  8
0
 10
-5.0000000000000062
 20
83.436989135582266
 30
0.0
 11
0.5630108644177483
 21
89.0
 31
0.0
  0
LINE
  5
248
  8
0
 10
-5.0000000000000062
 20
85.558309479141855
 30
0.0
 11
-1.558309479141889
 21
89.0
 31
0.0
  0
LINE
  5
249
  8
0
 10
-5.0000000000000062
 20
87.679629822701528
 30
0.0
 11
-3.6796298227015352
 21
89.0
 31
0.0
  0
LINE
  5
24A
  8
0
 10
2.0224263246016592
 20
-5.0
 30
0.0
 11
6.0224263246016587
 21
-1.0
 31
0.0
  0
LINE
  5
24B
  8
0
 10
92.022426324601668
 20
85.0
 30
0.0
 11
96.022426324601682
 21
89.0
 31
0.0
  0
LINE
  5
24C
  8
0
 10
4.143746668161298
 20
-5.0
 30
0.0
 11
8.1437466681613042
 21
-1.0
 31
0.0
  0
LINE
  5
24D
  8
0
 10
94.143746668161285
 20
85.0
 30
0.0
 11
98.143746668161299
 21
89.0
 31
0.0
  0
LINE
  5
24E
  8
0
 10
6.2650670117209426
 20
-5.0
 30
0.0
 11
10.265067011720941
 21
-1.0
 31
0.0
  0
LINE
  5
24F
  8
0
 10
96.26506701172093
 20
85.0
 30
0.0
 11
100.2650670117209
 21
89.0
 31
0.0
  0
LINE
  5
250
  8
0
 10
8.3863873552805792
 20
-5.0
 30
0.0
 11
12.38638735528059
 21
-1.0
 31
0.0
  0
LINE
  5
251
  8
0
 10
97.0
 20
83.61361264471941
 30
0.0
 11
101.0
 21
87.613612644719424
 31
0.0
  0
LINE
  5
252
  8
0
 10
10.507707698840219
 20
-5.0
 30
0.0
 11
14.50770769884023
 21
-1.0
 31
0.0
  0
LINE
  5
253
  8
0
 10
97.0
 20
81.492292301159765
 30
0.0
 11
101.0
 21
85.492292301159779
 31
0.0
  0
LINE
  5
254
  8
0
 10
12.62902804239987
 20
-5.0
 30
0.0
 11
16.629028042399881
 21
-1.0
 31
0.0
  0
LINE
  5
255
  8
0
 10
97.0
 20
79.370971957600133
 30
0.0
 11
101.0
 21
83.370971957600133
 31
0.0
  0
LINE
  5
256
  8
0
 10
14.75034838595951
 20
-5.0
 30
0.0
 11
18.750348385959519
 21
-1.0
 31
0.0
  0
LINE
  5
257
  8
0
 10
97.0
 20
77.249651614040474
 30
0.0
 11
101.0
 21
81.249651614040502
 31
0.0
  0
LINE
  5
258
  8
0
 10
16.871668729519151
 20
-5.0
 30
0.0
 11
20.87166872951914
 21
-1.0
 31
0.0
  0
LINE
  5
259
  8
0
 10
97.0
 20
75.128331270480842
 30
0.0
 11
101.0
 21
79.128331270480842
 31
0.0
  0
LINE
  5
25A
  8
0
 10
18.9929890730788
 20
-5.0
 30
0.0
 11
22.9929890730788
 21
-1.0
 31
0.0
  0
LINE
  5
25B
  8
0
 10
97.0
 20
73.007010926921183
 30
0.0
 11
101.0
 21
77.007010926921211
 31
0.0
  0
LINE
  5
25C
  8
0
 10
21.114309416638449
 20
-5.0
 30
0.0
 11
25.114309416638442
 21
-1.0
 31
0.0
  0
LINE
  5
25D
  8
0
 10
97.0
 20
70.885690583361551
 30
0.0
 11
101.0
 21
74.885690583361566
 31
0.0
  0
LINE
  5
25E
  8
0
 10
23.235629760198069
 20
-5.0
 30
0.0
 11
27.23562976019808
 21
-1.0
 31
0.0
  0
LINE
  5
25F
  8
0
 10
97.0
 20
68.764370239801906
 30
0.0
 11
101.0
 21
72.764370239801934
 31
0.0
  0
LINE
  5
260
  8
0
 10
25.356950103757711
 20
-5.0
 30
0.0
 11
29.356950103757729
 21
-1.0
 31
0.0
  0
LINE
  5
261
  8
0
 10
97.0
 20
66.643049896242275
 30
0.0
 11
101.0
 21
70.643049896242289
 31
0.0
  0
LINE
  5
262
  8
0
 10
27.478270447317371
 20
-5.0
 30
0.0
 11
30.0
 21
-2.47827044731737
 31
0.0
  0
LINE
  5
263
  8
0
 10
97.0
 20
64.521729552682629
 30
0.0
 11
101.0
 21
68.521729552682643
 31
0.0
  0
LINE
  5
264
  8
0
 10
29.599590790877009
 20
-5.0
 30
0.0
 11
30.0
 21
-4.5995907908770164
 31
0.0
  0
LINE
  5
265
  8
0
 10
97.0
 20
62.400409209122969
 30
0.0
 11
101.0
 21
66.400409209122998
 31
0.0
  0
LINE
  5
266
  8
0
 10
97.0
 20
60.279088865563352
 30
0.0
 11
101.0
 21
64.279088865563352
 31
0.0
  0
LINE
  5
267
  8
0
 10
98.842231477996293
 20
60.0
 30
0.0
 11
101.0
 21
62.157768522003707
 31
0.0
  0
LINE
  5
268
  8
0
 10
100.9635518215558
 20
60.0
 30
0.0
 11
101.0
 21
60.036448178444061
 31
0.0
  0
LINE
  5
269
  8
0
 10
66.0
 20
-2.5407162878312728
 30
0.0
 11
67.540716287831273
 21
-0.9999999999999856
 31
0.0
  0
LINE
  5
26A
  8
0
 10
66.0
 20
-4.662036631390917
 30
0.0
 11
69.662036631390919
 21
-0.9999999999999856
 31
0.0
  0
LINE
  5
26B
  8
0
 10
67.783356974950564
 20
-5.0
 30
0.0
 11
71.783356974950564
 21
-0.9999999999999856
 31
0.0
  0
LINE
  5
26C
  8
0
 10
69.90467731851021
 20
-5.0
 30
0.0
 11
73.904677318510196
 21
-0.9999999999999856
 31
0.0
  0
LINE
  5
26D
  8
0
 10
97.0
 20
22.09532268148978
 30
0.0
 11
98.90467731851021
 21
24.0
 31
0.0
  0
LINE
  5
26E
  8
0
 10
72.025997662069855
 20
-5.0
 30
0.0
 11
76.025997662069841
 21
-0.9999999999999856
 31
0.0
  0
LINE
  5
26F
  8
0
 10
97.0
 20
19.974002337930141
 30
0.0
 11
101.0
 21
23.974002337930141
 31
0.0
  0
LINE
  5
270
  8
0
 10
74.147318005629486
 20
-5.0
 30
0.0
 11
78.147318005629501
 21
-0.9999999999999856
 31
0.0
  0
LINE
  5
271
  8
0
 10
97.0
 20
17.852681994370499
 30
0.0
 11
101.0
 21
21.852681994370499
 31
0.0
  0
LINE
  5
272
  8
0
 10
76.268638349189132
 20
-5.0
 30
0.0
 11
80.268638349189132
 21
-0.9999999999999856
 31
0.0
  0
LINE
  5
273
  8
0
 10
97.0
 20
15.731361650810859
 30
0.0
 11
101.0
 21
19.731361650810861
 31
0.0
  0
LINE
  5
274
  8
0
 10
78.389958692748792
 20
-5.0
 30
0.0
 11
82.389958692748763
 21
-0.9999999999999856
 31
0.0
  0
LINE
  5
275
  8
0
 10
97.0
 20
13.61004130725121
 30
0.0
 11
101.0
 21
17.610041307251219
 31
0.0
  0
LINE
  5
276
  8
0
 10
80.511279036308423
 20
-5.0
 30
0.0
 11
84.511279036308423
 21
-0.9999999999999856
 31
0.0
  0
LINE
  5
277
  8
0
 10
97.0
 20
11.488720963691559
 30
0.0
 11
101.0
 21
15.48872096369157
 31
0.0
  0
LINE
  5
278
  8
0
 10
82.632599379868054
 20
-5.0
 30
0.0
 11
86.632599379868054
 21
-0.9999999999999856
 31
0.0
  0
LINE
  5
279
  8
0
 10
97.0
 20
9.3674006201319315
 30
0.0
 11
101.0
 21
13.36740062013193
 31
0.0
  0
LINE
  5
27A
  8
0
 10
84.753919723427686
 20
-5.0
 30
0.0
 11
88.753919723427714
 21
-0.9999999999999856
 31
0.0
  0
LINE
  5
27B
  8
0
 10
97.0
 20
7.246080276572286
 30
0.0
 11
101.0
 21
11.24608027657229
 31
0.0
  0
LINE
  5
27C
  8
0
 10
86.875240066987345
 20
-5.0
 30
0.0
 11
90.875240066987345
 21
-0.9999999999999856
 31
0.0
  0
LINE
  5
27D
  8
0
 10
97.0
 20
5.1247599330126388
 30
0.0
 11
101.0
 21
9.1247599330126494
 31
0.0
  0
LINE
  5
27E
  8
0
 10
88.996560410547005
 20
-5.0
 30
0.0
 11
92.996560410546991
 21
-0.9999999999999856
 31
0.0
  0
LINE
  5
27F
  8
0
 10
97.0
 20
3.0034395894529951
 30
0.0
 11
101.0
 21
7.0034395894530093
 31
0.0
  0
LINE
  5
280
  8
0
 10
91.117880754106636
 20
-5.0
 30
0.0
 11
95.117880754106636
 21
-0.9999999999999856
 31
0.0
  0
LINE
  5
281
  8
0
 10
97.0
 20
0.8821192458933636
 30
0.0
 11
101.0
 21
4.8821192458933629
 31
0.0
  0
LINE
  5
282
  8
0
 10
93.239201097666282
 20
-5.0
 30
0.0
 11
101.0
 21
2.7607989023337178
 31
0.0
  0
LINE
  5
283
  8
0
 10
95.360521441225913
 20
-5.0
 30
0.0
 11
101.0
 21
0.6394785587740728
 31
0.0
  0
LINE
  5
284
  8
0
 10
97.481841784785559
 20
-5.0
 30
0.0
 11
101.0
 21
-1.4818417847855581
 31
0.0
  0
LINE
  5
285
  8
0
 10
99.603162128345218
 20
-5.0
 30
0.0
 11
101.0
 21
-3.6031621283452031
 31
0.0
  0
LINE
  5
286
  8
0
 10
93.214035251664157
 20
-5.0
 30
0.0
 11
89.214035251664143
 21
-0.9999999999999856
 31
0.0
  0
LINE
  5
287
  8
0
 10
3.2140352516641628
 20
85.0
 30
0.0
 11
-0.7859647483358501
 21
89.0
 31
0.0
  0
LINE
  5
288
  8
0
 10
91.092714908104512
 20
-5.0
 30
0.0
 11
87.092714908104512
 21
-0.9999999999999856
 31
0.0
  0
LINE
  5
289
  8
0
 10
1.0927149081045171
 20
85.0
 30
0.0
 11
-2.907285091895488
 21
89.0
 31
0.0
  0
LINE
  5
28A
  8
0
 10
88.971394564544866
 20
-5.0
 30
0.0
 11
84.971394564544823
 21
-0.9999999999999856
 31
0.0
  0
LINE
  5
28B
  8
0
 10
-1.0000000000000071
 20
84.971394564544894
 30
0.0
 11
-5.0000000000000062
 21
88.971394564544866
 31
0.0
  0
LINE
  5
28C
  8
0
 10
86.850074220985221
 20
-5.0
 30
0.0
 11
82.850074220985206
 21
-0.9999999999999856
 31
0.0
  0
LINE
  5
28D
  8
0
 10
-1.0000000000000071
 20
82.850074220985235
 30
0.0
 11
-5.0000000000000062
 21
86.850074220985221
 31
0.0
  0
LINE
  5
28E
  8
0
 10
84.728753877425589
 20
-5.0
 30
0.0
 11
80.728753877425561
 21
-0.9999999999999856
 31
0.0
  0
LINE
  5
28F
  8
0
 10
-1.0000000000000071
 20
80.728753877425589
 30
0.0
 11
-5.0000000000000062
 21
84.728753877425589
 31
0.0
  0
LINE
  5
290
  8
0
 10
82.607433533865958
 20
-5.0
 30
0.0
 11
78.607433533865944
 21
-0.9999999999999856
 31
0.0
  0
LINE
  5
291
  8
0
 10
-1.0000000000000071
 20
78.607433533865944
 30
0.0
 11
-5.0000000000000062
 21
82.607433533865944
 31
0.0
  0
LINE
  5
292
  8
0
 10
80.486113190306298
 20
-5.0
 30
0.0
 11
76.486113190306284
 21
-0.9999999999999856
 31
0.0
  0
LINE
  5
293
  8
0
 10
-1.0000000000000071
 20
76.486113190306298
 30
0.0
 11
-5.0000000000000062
 21
80.486113190306298
 31
0.0
  0
LINE
  5
294
  8
0
 10
78.364792846746653
 20
-5.0
 30
0.0
 11
74.364792846746639
 21
-0.9999999999999856
 31
0.0
  0
LINE
  5
295
  8
0
 10
-1.0000000000000071
 20
74.364792846746667
 30
0.0
 11
-5.0000000000000062
 21
78.364792846746653
 31
0.0
  0
LINE
  5
296
  8
0
 10
76.243472503187022
 20
-5.0
 30
0.0
 11
72.243472503186993
 21
-0.9999999999999856
 31
0.0
  0
LINE
  5
297
  8
0
 10
-1.0000000000000071
 20
72.243472503187022
 30
0.0
 11
-5.0000000000000062
 21
76.243472503187022
 31
0.0
  0
LINE
  5
298
  8
0
 10
74.122152159627376
 20
-5.0
 30
0.0
 11
70.122152159627362
 21
-0.9999999999999856
 31
0.0
  0
LINE
  5
299
  8
0
 10
-1.0000000000000071
 20
70.122152159627376
 30
0.0
 11
-5.0000000000000062
 21
74.122152159627376
 31
0.0
  0
LINE
  5
29A
  8
0
 10
72.000831816067731
 20
-5.0
 30
0.0
 11
68.000831816067716
 21
-0.9999999999999856
 31
0.0
  0
LINE
  5
29B
  8
0
 10
-1.0000000000000071
 20
68.000831816067731
 30
0.0
 11
-5.0000000000000062
 21
72.000831816067731
 31
0.0
  0
LINE
  5
29C
  8
0
 10
69.879511472508071
 20
-5.0
 30
0.0
 11
66.0
 21
-1.1204885274919141
 31
0.0
  0
LINE
  5
29D
  8
0
 10
-1.0000000000000071
 20
65.879511472508099
 30
0.0
 11
-5.0000000000000062
 21
69.879511472508071
 31
0.0
  0
LINE
  5
29E
  8
0
 10
67.758191128948425
 20
-5.0
 30
0.0
 11
66.0
 21
-3.24180887105156
 31
0.0
  0
LINE
  5
29F
  8
0
 10
-1.0000000000000071
 20
63.758191128948447
 30
0.0
 11
-5.0000000000000062
 21
67.758191128948454
 31
0.0
  0
LINE
  5
2A0
  8
0
 10
-1.0000000000000071
 20
61.636870785388808
 30
0.0
 11
-5.0000000000000062
 21
65.636870785388808
 31
0.0
  0
LINE
  5
2A1
  8
0
 10
-1.0000000000000071
 20
59.515550441829149
 30
0.0
 11
-5.0000000000000062
 21
63.515550441829163
 31
0.0
  0
LINE
  5
2A2
  8
0
 10
-1.0000000000000071
 20
57.394230098269531
 30
0.0
 11
-5.0000000000000062
 21
61.394230098269531
 31
0.0
  0
LINE
  5
2A3
  8
0
 10
-1.7270502452901211
 20
55.999959999999987
 30
0.0
 11
-5.0000000000000062
 21
59.272909754709879
 31
0.0
  0
LINE
  5
2A4
  8
0
 10
-3.8483705888497681
 20
55.999959999999987
 30
0.0
 11
-5.0000000000000062
 21
57.15158941115024
 31
0.0
  0
LINE
  5
2A5
  8
0
 10
30.0
 20
-1.1829343680058311
 30
0.0
 11
29.817065631994161
 21
-1.0
 31
0.0
  0
LINE
  5
2A6
  8
0
 10
30.0
 20
-3.304254711565477
 30
0.0
 11
27.695745288434519
 21
-1.0
 31
0.0
  0
LINE
  5
2A7
  8
0
 10
29.57442494487487
 20
-5.0
 30
0.0
 11
25.57442494487487
 21
-1.0
 31
0.0
  0
LINE
  5
2A8
  8
0
 10
27.453104601315228
 20
-5.0
 30
0.0
 11
23.453104601315228
 21
-1.0
 31
0.0
  0
LINE
  5
2A9
  8
0
 10
-1.0
 20
23.453104601315228
 30
0.0
 11
-1.54689539868476
 21
24.0
 31
0.0
  0
LINE
  5
2AA
  8
0
 10
25.331784257755601
 20
-5.0
 30
0.0
 11
21.331784257755569
 21
-1.0
 31
0.0
  0
LINE
  5
2AB
  8
0
 10
-1.0
 20
21.331784257755601
 30
0.0
 11
-3.6682157422443988
 21
24.0
 31
0.0
  0
LINE
  5
2AC
  8
0
 10
23.210463914195941
 20
-5.0
 30
0.0
 11
19.210463914195952
 21
-1.0
 31
0.0
  0
LINE
  5
2AD
  8
0
 10
-1.0
 20
19.210463914195952
 30
0.0
 11
-5.0000000000000062
 21
23.210463914195959
 31
0.0
  0
LINE
  5
2AE
  8
0
 10
21.08914357063631
 20
-5.0
 30
0.0
 11
17.08914357063631
 21
-1.0
 31
0.0
  0
LINE
  5
2AF
  8
0
 10
-1.0
 20
17.08914357063631
 30
0.0
 11
-5.0000000000000062
 21
21.08914357063631
 31
0.0
  0
LINE
  5
2B0
  8
0
 10
18.967823227076671
 20
-5.0
 30
0.0
 11
14.96782322707665
 21
-1.0
 31
0.0
  0
LINE
  5
2B1
  8
0
 10
-1.0
 20
14.96782322707667
 30
0.0
 11
-5.0000000000000062
 21
18.967823227076671
 31
0.0
  0
LINE
  5
2B2
  8
0
 10
16.846502883517019
 20
-5.0
 30
0.0
 11
12.846502883517021
 21
-1.0
 31
0.0
  0
LINE
  5
2B3
  8
0
 10
-1.0000000000000071
 20
12.846502883517029
 30
0.0
 11
-5.0
 21
16.846502883517019
 31
0.0
  0
LINE
  5
2B4
  8
0
 10
14.72518253995738
 20
-5.0
 30
0.0
 11
10.72518253995738
 21
-1.0
 31
0.0
  0
LINE
  5
2B5
  8
0
 10
-1.0000000000000071
 20
10.72518253995738
 30
0.0
 11
-5.0
 21
14.72518253995738
 31
0.0
  0
LINE
  5
2B6
  8
0
 10
12.60386219639774
 20
-5.0
 30
0.0
 11
8.6038621963977331
 21
-1.0
 31
0.0
  0
LINE
  5
2B7
  8
0
 10
-1.0000000000000071
 20
8.6038621963977491
 30
0.0
 11
-5.0
 21
12.60386219639774
 31
0.0
  0
LINE
  5
2B8
  8
0
 10
10.4825418528381
 20
-5.0
 30
0.0
 11
6.4825418528380956
 21
-1.0
 31
0.0
  0
LINE
  5
2B9
  8
0
 10
-1.0000000000000071
 20
6.4825418528381098
 30
0.0
 11
-5.0
 21
10.4825418528381
 31
0.0
  0
LINE
  5
2BA
  8
0
 10
8.3612215092784563
 20
-5.0
 30
0.0
 11
4.3612215092784501
 21
-1.0
 31
0.0
  0
LINE
  5
2BB
  8
0
 10
-1.0000000000000071
 20
4.3612215092784652
 30
0.0
 11
-5.0
 21
8.3612215092784563
 31
0.0
  0
LINE
  5
2BC
  8
0
 10
6.2399011657188179
 20
-5.0
 30
0.0
 11
2.2399011657188121
 21
-1.0
 31
0.0
  0
LINE
  5
2BD
  8
0
 10
-1.0000000000000071
 20
2.2399011657188179
 30
0.0
 11
-5.0
 21
6.2399011657188117
 31
0.0
  0
LINE
  5
2BE
  8
0
 10
4.1185808221591742
 20
-5.0
 30
0.0
 11
0.1185808221591671
 21
-1.0
 31
0.0
  0
LINE
  5
2BF
  8
0
 10
-1.0000000000000071
 20
0.1185808221591884
 30
0.0
 11
-5.0
 21
4.1185808221591742
 31
0.0
  0
LINE
  5
2C0
  8
0
 10
1.9972604785995269
 20
-5.0
 30
0.0
 11
-5.0
 21
1.9972604785995269
 31
0.0
  0
LINE
  5
2C1
  8
0
 10
-0.1240598649601097
 20
-5.0
 30
0.0
 11
-5.0
 21
-0.1240598649601168
 31
0.0
  0
LINE
  5
2C2
  8
0
 10
-2.2453802085197552
 20
-5.0
 30
0.0
 11
-5.0
 21
-2.2453802085197609
 31
0.0
  0
LINE
  5
2C3
  8
0
 10
-4.3667005520793927
 20
-5.0
 30
0.0
 11
-5.0
 21
-4.3667005520793927
 31
0.0
  0
LINE
  5
2C4
  8
0
 10
95.335355595223788
 20
-5.0
 30
0.0
 11
91.335355595223774
 21
-0.9999999999999856
 31
0.0
  0
LINE
  5
2C5
  8
0
 10
5.3353555952238079
 20
85.0
 30
0.0
 11
1.3353555952237941
 21
89.0
 31
0.0
  0
LINE
  5
2C6
  8
0
 10
97.456675938783434
 20
-5.0
 30
0.0
 11
93.456675938783434
 21
-0.9999999999999856
 31
0.0
  0
LINE
  5
2C7
  8
0
 10
7.456675938783448
 20
85.0
 30
0.0
 11
3.45667593878344
 21
89.0
 31
0.0
  0
LINE
  5
2C8
  8
0
 10
99.577996282343122
 20
-5.0
 30
0.0
 11
95.577996282343065
 21
-0.9999999999999856
 31
0.0
  0
LINE
  5
2C9
  8
0
 10
9.5779962823430917
 20
85.0
 30
0.0
 11
5.5779962823430784
 21
89.0
 31
0.0
  0
LINE
  5
2CA
  8
0
 10
101.0
 20
-4.3006833740972592
 30
0.0
 11
97.0
 21
-0.3006833740972752
 31
0.0
  0
LINE
  5
2CB
  8
0
 10
11.69931662590273
 20
85.0
 30
0.0
 11
7.699316625902723
 21
89.0
 31
0.0
  0
LINE
  5
2CC
  8
0
 10
101.0
 20
-2.1793630305376288
 30
0.0
 11
97.0
 21
1.8206369694623701
 31
0.0
  0
LINE
  5
2CD
  8
0
 10
13.82063696946236
 20
85.0
 30
0.0
 11
9.8206369694623703
 21
89.0
 31
0.0
  0
LINE
  5
2CE
  8
0
 10
101.0
 20
-0.0580426869779842
 30
0.0
 11
97.0
 21
3.941957313022014
 31
0.0
  0
LINE
  5
2CF
  8
0
 10
15.94195731302201
 20
85.0
 30
0.0
 11
11.941957313022
 21
89.0
 31
0.0
  0
LINE
  5
2D0
  8
0
 10
101.0
 20
2.06327765658166
 30
0.0
 11
97.0
 21
6.0632776565816533
 31
0.0
  0
LINE
  5
2D1
  8
0
 10
18.063277656581651
 20
85.0
 30
0.0
 11
14.06327765658164
 21
89.0
 31
0.0
  0
LINE
  5
2D2
  8
0
 10
101.0
 20
4.1845980001412917
 30
0.0
 11
97.0
 21
8.1845980001412855
 31
0.0
  0
LINE
  5
2D3
  8
0
 10
20.184598000141289
 20
85.0
 30
0.0
 11
16.184598000141271
 21
89.0
 31
0.0
  0
LINE
  5
2D4
  8
0
 10
101.0
 20
6.3059183437009372
 30
0.0
 11
97.0
 21
10.305918343700929
 31
0.0
  0
LINE
  5
2D5
  8
0
 10
22.305918343700931
 20
85.0
 30
0.0
 11
18.30591834370092
 21
89.0
 31
0.0
  0
LINE
  5
2D6
  8
0
 10
101.0
 20
8.4272386872605765
 30
0.0
 11
97.0
 21
12.427238687260569
 31
0.0
  0
LINE
  5
2D7
  8
0
 10
24.42723868726058
 20
85.0
 30
0.0
 11
20.427238687260559
 21
89.0
 31
0.0
  0
LINE
  5
2D8
  8
0
 10
101.0
 20
10.54855903082022
 30
0.0
 11
97.0
 21
14.548559030820201
 31
0.0
  0
LINE
  5
2D9
  8
0
 10
26.548559030820218
 20
85.0
 30
0.0
 11
22.548559030820211
 21
89.0
 31
0.0
  0
LINE
  5
2DA
  8
0
 10
101.0
 20
12.66987937437985
 30
0.0
 11
97.0
 21
16.66987937437986
 31
0.0
  0
LINE
  5
2DB
  8
0
 10
28.669879374379871
 20
85.0
 30
0.0
 11
24.66987937437986
 21
89.0
 31
0.0
  0
LINE
  5
2DC
  8
0
 10
101.0
 20
14.791199717939501
 30
0.0
 11
97.0
 21
18.791199717939499
 31
0.0
  0
LINE
  5
2DD
  8
0
 10
30.791199717939499
 20
85.0
 30
0.0
 11
26.791199717939499
 21
89.0
 31
0.0
  0
LINE
  5
2DE
  8
0
 10
101.0
 20
16.912520061499151
 30
0.0
 11
97.0
 21
20.912520061499141
 31
0.0
  0
LINE
  5
2DF
  8
0
 10
32.912520061499137
 20
85.0
 30
0.0
 11
28.912520061499141
 21
89.0
 31
0.0
  0
LINE
  5
2E0
  8
0
 10
101.0
 20
19.033840405058779
 30
0.0
 11
97.0
 21
23.033840405058779
 31
0.0
  0
LINE
  5
2E1
  8
0
 10
35.033840405058797
 20
85.0
 30
0.0
 11
31.033840405058768
 21
89.0
 31
0.0
  0
LINE
  5
2E2
  8
0
 10
101.0
 20
21.155160748618421
 30
0.0
 11
98.155160748618428
 21
24.0
 31
0.0
  0
LINE
  5
2E3
  8
0
 10
37.155160748618428
 20
85.0
 30
0.0
 11
33.155160748618428
 21
89.0
 31
0.0
  0
LINE
  5
2E4
  8
0
 10
101.0
 20
23.276481092178059
 30
0.0
 11
100.2764810921779
 21
24.0
 31
0.0
  0
LINE
  5
2E5
  8
0
 10
39.276481092178088
 20
85.0
 30
0.0
 11
35.276481092178059
 21
89.0
 31
0.0
  0
LINE
  5
2E6
  8
0
 10
41.397801435737719
 20
85.0
 30
0.0
 11
37.397801435737719
 21
89.0
 31
0.0
  0
LINE
  5
2E7
  8
0
 10
43.519121779297357
 20
85.0
 30
0.0
 11
39.51912177929735
 21
89.0
 31
0.0
  0
LINE
  5
2E8
  8
0
 10
45.64044212285701
 20
85.0
 30
0.0
 11
41.640442122856989
 21
89.0
 31
0.0
  0
LINE
  5
2E9
  8
0
 10
47.761762466416641
 20
85.0
 30
0.0
 11
43.761762466416648
 21
89.0
 31
0.0
  0
LINE
  5
2EA
  8
0
 10
49.883082809976301
 20
85.0
 30
0.0
 11
45.883082809976287
 21
89.0
 31
0.0
  0
LINE
  5
2EB
  8
0
 10
52.004403153535918
 20
85.0
 30
0.0
 11
48.004403153535932
 21
89.0
 31
0.0
  0
LINE
  5
2EC
  8
0
 10
54.125723497095578
 20
85.0
 30
0.0
 11
50.125723497095557
 21
89.0
 31
0.0
  0
LINE
  5
2ED
  8
0
 10
56.247043840655223
 20
85.0
 30
0.0
 11
52.247043840655209
 21
89.0
 31
0.0
  0
LINE
  5
2EE
  8
0
 10
58.368364184214869
 20
85.0
 30
0.0
 11
54.368364184214848
 21
89.0
 31
0.0
  0
LINE
  5
2EF
  8
0
 10
60.489684527774507
 20
85.0
 30
0.0
 11
56.489684527774493
 21
89.0
 31
0.0
  0
LINE
  5
2F0
  8
0
 10
62.611004871334153
 20
85.0
 30
0.0
 11
58.611004871334138
 21
89.0
 31
0.0
  0
LINE
  5
2F1
  8
0
 10
64.732325214893791
 20
85.0
 30
0.0
 11
60.732325214893763
 21
89.0
 31
0.0
  0
LINE
  5
2F2
  8
0
 10
66.853645558453422
 20
85.0
 30
0.0
 11
62.853645558453429
 21
89.0
 31
0.0
  0
LINE
  5
2F3
  8
0
 10
68.974965902013082
 20
85.0
 30
0.0
 11
64.974965902013068
 21
89.0
 31
0.0
  0
LINE
  5
2F4
  8
0
 10
71.096286245572742
 20
85.0
 30
0.0
 11
67.096286245572713
 21
89.0
 31
0.0
  0
LINE
  5
2F5
  8
0
 10
98.217606589132345
 20
60.0
 30
0.0
 11
97.0
 21
61.217606589132359
 31
0.0
  0
LINE
  5
2F6
  8
0
 10
73.217606589132373
 20
85.0
 30
0.0
 11
69.217606589132345
 21
89.0
 31
0.0
  0
LINE
  5
2F7
  8
0
 10
100.3389269326919
 20
60.0
 30
0.0
 11
97.0
 21
63.338926932691997
 31
0.0
  0
LINE
  5
2F8
  8
0
 10
75.338926932692004
 20
85.0
 30
0.0
 11
71.33892693269199
 21
89.0
 31
0.0
  0
LINE
  5
2F9
  8
0
 10
101.0
 20
61.460247276251643
 30
0.0
 11
97.0
 21
65.46024727625165
 31
0.0
  0
LINE
  5
2FA
  8
0
 10
77.460247276251664
 20
85.0
 30
0.0
 11
73.460247276251621
 21
89.0
 31
0.0
  0
LINE
  5
2FB
  8
0
 10
101.0
 20
63.581567619811281
 30
0.0
 11
97.0
 21
67.581567619811295
 31
0.0
  0
LINE
  5
2FC
  8
0
 10
79.581567619811295
 20
85.0
 30
0.0
 11
75.581567619811281
 21
89.0
 31
0.0
  0
LINE
  5
2FD
  8
0
 10
101.0
 20
65.702887963370898
 30
0.0
 11
97.0
 21
69.702887963370927
 31
0.0
  0
LINE
  5
2FE
  8
0
 10
81.702887963370927
 20
85.0
 30
0.0
 11
77.702887963370927
 21
89.0
 31
0.0
  0
LINE
  5
2FF
  8
0
 10
101.0
 20
67.824208306930544
 30
0.0
 11
97.0
 21
71.824208306930558
 31
0.0
  0
LINE
  5
300
  8
0
 10
83.824208306930586
 20
85.0
 30
0.0
 11
79.824208306930544
 21
89.0
 31
0.0
  0
LINE
  5
301
  8
0
 10
101.0
 20
69.945528650490203
 30
0.0
 11
97.0
 21
73.945528650490203
 31
0.0
  0
LINE
  5
302
  8
0
 10
85.945528650490218
 20
85.0
 30
0.0
 11
81.945528650490218
 21
89.0
 31
0.0
  0
LINE
  5
303
  8
0
 10
101.0
 20
72.066848994049849
 30
0.0
 11
97.0
 21
76.066848994049863
 31
0.0
  0
LINE
  5
304
  8
0
 10
88.066848994049877
 20
85.0
 30
0.0
 11
84.066848994049835
 21
89.0
 31
0.0
  0
LINE
  5
305
  8
0
 10
101.0
 20
74.18816933760948
 30
0.0
 11
97.0
 21
78.188169337609523
 31
0.0
  0
LINE
  5
306
  8
0
 10
90.188169337609494
 20
85.0
 30
0.0
 11
86.188169337609509
 21
89.0
 31
0.0
  0
LINE
  5
307
  8
0
 10
101.0
 20
76.309489681169126
 30
0.0
 11
97.0
 21
80.309489681169154
 31
0.0
  0
LINE
  5
308
  8
0
 10
92.309489681169154
 20
85.0
 30
0.0
 11
88.309489681169126
 21
89.0
 31
0.0
  0
LINE
  5
309
  8
0
 10
101.0
 20
78.430810024728771
 30
0.0
 11
97.0
 21
82.430810024728785
 31
0.0
  0
LINE
  5
30A
  8
0
 10
94.430810024728785
 20
85.0
 30
0.0
 11
90.430810024728771
 21
89.0
 31
0.0
  0
LINE
  5
30B
  8
0
 10
101.0
 20
80.552130368288417
 30
0.0
 11
97.0
 21
84.552130368288417
 31
0.0
  0
LINE
  5
30C
  8
0
 10
96.552130368288445
 20
85.0
 30
0.0
 11
92.552130368288445
 21
89.0
 31
0.0
  0
LINE
  5
30D
  8
0
 10
101.0
 20
82.673450711848062
 30
0.0
 11
94.673450711848091
 21
89.0
 31
0.0
  0
LINE
  5
30E
  8
0
 10
101.0
 20
84.794771055407708
 30
0.0
 11
96.794771055407722
 21
89.0
 31
0.0
  0
LINE
  5
30F
  8
0
 10
101.0
 20
86.916091398967325
 30
0.0
 11
98.916091398967353
 21
89.0
 31
0.0
  0
ENDBLK
  5
311
  8
0
  0
BLOCK
  8
0
  2
MIKROWELLENGERÄT
 70
     2
 10
0.0
 20
0.0
 30
0.0
  3
MIKROWELLENGERÄT
  1
MICROWAVE_OVEN
  0
POLYLINE
  5
337
  8
0
 66
     1
 10
0.0
 20
0.0
 30
0.0
 70
     1
  0
VERTEX
  5
9AF
  8
0
 10
18.5
 20
4.5
 30
0.0
  0
VERTEX
  5
9B0
  8
0
 10
18.5
 20
5.5
 30
0.0
  0
VERTEX
  5
9B1
  8
0
 10
21.499999999999989
 20
5.5
 30
0.0
  0
VERTEX
  5
9B2
  8
0
 10
21.499999999999989
 20
4.5
 30
0.0
  0
SEQEND
  5
9B3
  8
0
  0
POLYLINE
  5
338
  8
0
 66
     1
 10
0.0
 20
0.0
 30
0.0
 70
     1
  0
VERTEX
  5
9B4
  8
0
 10
18.5
 20
3.0
 30
0.0
  0
VERTEX
  5
9B5
  8
0
 10
18.5
 20
4.0
 30
0.0
  0
VERTEX
  5
9B6
  8
0
 10
21.499999999999989
 20
4.0
 30
0.0
  0
VERTEX
  5
9B7
  8
0
 10
21.499999999999989
 20
3.0
 30
0.0
  0
SEQEND
  5
9B8
  8
0
  0
LINE
  5
339
  8
0
 10
19.0
 20
6.0
 30
0.0
 11
19.0
 21
7.0
 31
0.0
  0
LINE
  5
33A
  8
0
 10
20.0
 20
6.0
 30
0.0
 11
18.0
 21
6.0
 31
0.0
  0
LINE
  5
33B
  8
0
 10
20.0
 20
7.0
 30
0.0
 11
20.0
 21
6.0
 31
0.0
  0
LINE
  5
33C
  8
0
 10
21.0
 20
7.0
 30
0.0
 11
21.0
 21
11.0
 31
0.0
  0
LINE
  5
33D
  8
0
 10
20.0
 20
11.0
 30
0.0
 11
20.0
 21
7.0
 31
0.0
  0
LINE
  5
33E
  8
0
 10
19.0
 20
7.0
 30
0.0
 11
19.0
 21
11.0
 31
0.0
  0
LINE
  5
33F
  8
0
 10
22.0
 20
7.0
 30
0.0
 11
18.0
 21
7.0
 31
0.0
  0
LINE
  5
340
  8
0
 10
18.0
 20
8.0
 30
0.0
 11
22.0
 21
8.0
 31
0.0
  0
LINE
  5
341
  8
0
 10
22.0
 20
9.0
 30
0.0
 11
18.0
 21
9.0
 31
0.0
  0
LINE
  5
342
  8
0
 10
18.0
 20
10.0
 30
0.0
 11
22.0
 21
10.0
 31
0.0
  0
POLYLINE
  5
343
  8
0
 66
     1
 10
0.0
 20
0.0
 30
0.0
 70
     1
  0
VERTEX
  5
9B9
  8
0
 10
18.0
 20
2.0
 30
0.0
  0
VERTEX
  5
9BA
  8
0
 10
18.0
 20
11.0
 30
0.0
  0
VERTEX
  5
9BB
  8
0
 10
22.0
 20
11.0
 30
0.0
  0
VERTEX
  5
9BC
  8
0
 10
22.0
 20
2.0
 30
0.0
  0
SEQEND
  5
9BD
  8
0
  0
POLYLINE
  5
344
  8
0
 66
     1
 10
0.0
 20
0.0
 30
0.0
 70
     1
  0
VERTEX
  5
9BE
  8
0
 10
18.0
 20
12.0
 30
0.0
  0
VERTEX
  5
9BF
  8
0
 10
18.0
 20
16.0
 30
0.0
  0
VERTEX
  5
9C0
  8
0
 10
22.0
 20
16.0
 30
0.0
  0
VERTEX
  5
9C1
  8
0
 10
22.0
 20
12.0
 30
0.0
  0
SEQEND
  5
9C2
  8
0
  0
POLYLINE
  5
345
  8
0
 66
     1
 10
0.0
 20
0.0
 30
0.0
 70
     1
  0
VERTEX
  5
9C3
  8
0
 10
2.5
 20
2.5
 30
0.0
  0
VERTEX
  5
9C4
  8
0
 10
2.5
 20
15.5
 30
0.0
  0
VERTEX
  5
9C5
  8
0
 10
14.5
 20
15.5
 30
0.0
  0
VERTEX
  5
9C6
  8
0
 10
14.5
 20
2.5
 30
0.0
  0
SEQEND
  5
9C7
  8
0
  0
POLYLINE
  5
346
  8
0
 66
     1
 10
0.0
 20
0.0
 30
0.0
 70
     1
  0
VERTEX
  5
9C8
  8
0
 10
1.0
 20
1.0
 30
0.0
  0
VERTEX
  5
9C9
  8
0
 10
1.0
 20
17.0
 30
0.0
  0
VERTEX
  5
9CA
  8
0
 10
16.0
 20
17.0
 30
0.0
  0
VERTEX
  5
9CB
  8
0
 10
16.0
 20
1.0
 30
0.0
  0
SEQEND
  5
9CC
  8
0
  0
POLYLINE
  5
347
  8
0
 66
     1
 10
0.0
 20
0.0
 30
0.0
 70
     1
  0
VERTEX
  5
9CD
  8
0
 10
17.0
 20
1.0
 30
0.0
  0
VERTEX
  5
9CE
  8
0
 10
17.0
 20
17.0
 30
0.0
  0
VERTEX
  5
9CF
  8
0
 10
23.0
 20
17.0
 30
0.0
  0
VERTEX
  5
9D0
  8
0
 10
23.0
 20
1.0
 30
0.0
  0
SEQEND
  5
9D1
  8
0
  0
POLYLINE
  5
348
  8
0
 66
     1
 10
0.0
 20
0.0
 30
0.0
 70
     1
  0
VERTEX
  5
9D2
  8
0
 10
0.0
 20
0.0
 30
0.0
  0
VERTEX
  5
9D3
  8
0
 10
0.0
 20
18.0
 30
0.0
  0
VERTEX
  5
9D4
  8
0
 10
24.0
 20
18.0
 30
0.0
  0
VERTEX
  5
9D5
  8
0
 10
24.0
 20
0.0
 30
0.0
  0
SEQEND
  5
9D6
  8
0
  0
ENDBLK
  5
34A
  8
0
  0
BLOCK
  8
0
  2
TELEFONSTECKDOSE
 70
     2
 10
0.0
 20
0.0
 30
0.0
  3
TELEFONSTECKDOSE
  1
PHONE_JACK
  0
LINE
  5
352
  8
0
 10
-0.125
 20
0.5
 30
0.0
 11
0.125
 21
0.5
 31
0.0
  0
CIRCLE
  5
353
  8
0
 10
0.0
 20
0.5
 30
0.0
 40
0.125
  0
CIRCLE
  5
354
  8
0
 10
0.0
 20
4.5
 30
0.0
 40
0.125
  0
LINE
  5
355
  8
0
 10
-0.125
 20
4.5
 30
0.0
 11
0.125
 21
4.5
 31
0.0
  0
POLYLINE
  5
356
  8
0
 66
     1
 10
0.0
 20
0.0
 30
0.0
  0
VERTEX
  5
9D9
  8
0
 10
-0.1894000000000346
 20
2.4158000000000182
 30
0.0
  0
VERTEX
  5
9DA
  8
0
 10
-0.1894000000000346
 20
2.6658000000000182
 30
0.0
  0
VERTEX
  5
9DB
  8
0
 10
0.1855999999999653
 20
2.6658000000000182
 30
0.0
  0
VERTEX
  5
9DC
  8
0
 10
0.1855999999999653
 20
2.4158000000000182
 30
0.0
  0
SEQEND
  5
9DD
  8
0
  0
POLYLINE
  5
357
  8
0
 66
     1
 10
0.0
 20
0.0
 30
0.0
  0
VERTEX
  5
9DE
  8
0
 10
0.0605999999999654
 20
2.2908000000000182
 30
0.0
  0
VERTEX
  5
9DF
  8
0
 10
-0.0644000000000347
 20
2.2908000000000182
 30
0.0
  0
SEQEND
  5
9E0
  8
0
  0
LINE
  5
358
  8
0
 10
0.1230999999999653
 20
2.4158000000000182
 30
0.0
 11
0.1855999999999653
 21
2.4158000000000182
 31
0.0
  0
LINE
  5
359
  8
0
 10
0.1230999999999653
 20
2.3845000000000018
 30
0.0
 11
0.1230999999999653
 21
2.4158000000000182
 31
0.0
  0
LINE
  5
35A
  8
0
 10
0.0917999999999779
 20
2.3845000000000018
 30
0.0
 11
0.1230999999999653
 21
2.3845000000000018
 31
0.0
  0
LINE
  5
35B
  8
0
 10
0.0917999999999779
 20
2.3533000000000182
 30
0.0
 11
0.0917999999999779
 21
2.3845000000000018
 31
0.0
  0
LINE
  5
35C
  8
0
 10
0.0605999999999654
 20
2.3533000000000182
 30
0.0
 11
0.0917999999999779
 21
2.3533000000000182
 31
0.0
  0
LINE
  5
35D
  8
0
 10
-0.1269000000000346
 20
2.4158000000000182
 30
0.0
 11
-0.1894000000000346
 21
2.4158000000000182
 31
0.0
  0
LINE
  5
35E
  8
0
 10
-0.1269000000000346
 20
2.3845000000000018
 30
0.0
 11
-0.1269000000000346
 21
2.4158000000000182
 31
0.0
  0
LINE
  5
35F
  8
0
 10
-0.0957000000000221
 20
2.3845000000000018
 30
0.0
 11
-0.1269000000000346
 21
2.3845000000000018
 31
0.0
  0
LINE
  5
360
  8
0
 10
-0.0957000000000221
 20
2.3533000000000182
 30
0.0
 11
-0.0957000000000221
 21
2.3845000000000018
 31
0.0
  0
LINE
  5
361
  8
0
 10
-0.0644000000000347
 20
2.3533000000000182
 30
0.0
 11
-0.0957000000000221
 21
2.3533000000000182
 31
0.0
  0
LINE
  5
362
  8
0
 10
0.0605999999999654
 20
2.3533000000000182
 30
0.0
 11
0.0605999999999654
 21
2.2908000000000182
 31
0.0
  0
LINE
  5
363
  8
0
 10
-0.0644000000000347
 20
2.2908000000000182
 30
0.0
 11
-0.0644000000000347
 21
2.3533000000000182
 31
0.0
  0
CIRCLE
  5
364
  8
0
 10
0.0
 20
2.5
 30
0.0
 40
0.5
  0
LINE
  5
365
  8
0
 10
1.25
 20
0.25
 30
0.0
 11
1.5
 21
0.0
 31
0.0
  0
LINE
  5
366
  8
0
 10
1.25
 20
4.75
 30
0.0
 11
1.5
 21
5.0
 31
0.0
  0
LINE
  5
367
  8
0
 10
-1.25
 20
4.75
 30
0.0
 11
-1.5
 21
5.0
 31
0.0
  0
LINE
  5
368
  8
0
 10
-1.25
 20
0.25
 30
0.0
 11
-1.5
 21
0.0
 31
0.0
  0
LINE
  5
369
  8
0
 10
1.25
 20
0.25
 30
0.0
 11
-1.25
 21
0.25
 31
0.0
  0
LINE
  5
36A
  8
0
 10
1.25
 20
4.75
 30
0.0
 11
1.25
 21
0.25
 31
0.0
  0
LINE
  5
36B
  8
0
 10
-1.25
 20
4.75
 30
0.0
 11
1.25
 21
4.75
 31
0.0
  0
LINE
  5
36C
  8
0
 10
-1.25
 20
0.25
 30
0.0
 11
-1.25
 21
4.75
 31
0.0
  0
POLYLINE
  5
36D
  8
0
 66
     1
 10
0.0
 20
0.0
 30
0.0
 70
     1
  0
VERTEX
  5
9E1
  8
0
 10
-1.5
 20
0.0
 30
0.0
  0
VERTEX
  5
9E2
  8
0
 10
-1.5
 20
5.0
 30
0.0
  0
VERTEX
  5
9E3
  8
0
 10
1.5
 20
5.0
 30
0.0
  0
VERTEX
  5
9E4
  8
0
 10
1.5
 20
0.0
 30
0.0
  0
SEQEND
  5
9E5
  8
0
  0
ENDBLK
  5
36F
  8
0
  0
BLOCK
  8
0
  2
HERD_-_76_CM_IN_VORDERANSI
 70
     2
 10
0.0
 20
0.0
 30
0.0
  3
HERD_-_76_CM_IN_VORDERANSI
  1
RANGE_30_INCH_FRONT
  0
CIRCLE
  5
377
  8
0
 10
26.0
 20
34.500050000000002
 30
0.0
 40
1.0
  0
CIRCLE
  5
378
  8
0
 10
16.0
 20
34.500050000000002
 30
0.0
 40
1.0
  0
CIRCLE
  5
379
  8
0
 10
11.0
 20
34.500050000000002
 30
0.0
 40
1.0
  0
CIRCLE
  5
37A
  8
0
 10
21.0
 20
34.500050000000002
 30
0.0
 40
1.0
  0
POLYLINE
  5
37B
  8
0
 66
     1
 10
0.0
 20
0.0
 30
0.0
 70
     1
  0
VERTEX
  5
9E8
  8
0
 10
1.0
 20
33.500050000000002
 30
0.0
  0
VERTEX
  5
9E9
  8
0
 10
1.0
 20
35.500050000000002
 30
0.0
  0
VERTEX
  5
9EA
  8
0
 10
7.0
 20
35.500050000000002
 30
0.0
  0
VERTEX
  5
9EB
  8
0
 10
7.0
 20
33.500050000000002
 30
0.0
  0
SEQEND
  5
9EC
  8
0
  0
POLYLINE
  5
37C
  8
0
 66
     1
 10
0.0
 20
0.0
 30
0.0
 70
     1
  0
VERTEX
  5
9ED
  8
0
 10
2.0
 20
31.000050000000002
 30
0.0
  0
VERTEX
  5
9EE
  8
0
 10
2.0
 20
32.000050000000002
 30
0.0
  0
VERTEX
  5
9EF
  8
0
 10
28.0
 20
32.000050000000002
 30
0.0
  0
VERTEX
  5
9F0
  8
0
 10
28.0
 20
31.000050000000002
 30
0.0
  0
SEQEND
  5
9F1
  8
0
  0
LINE
  5
37D
  8
0
 10
0.0
 20
33.000050000000002
 30
0.0
 11
30.0
 21
33.000050000000002
 31
0.0
  0
LINE
  5
37E
  8
0
 10
30.0
 20
10.0
 30
0.0
 11
0.0
 21
10.0
 31
0.0
  0
LINE
  5
37F
  8
0
 10
0.0
 20
5.0
 30
0.0
 11
30.0
 21
5.0
 31
0.0
  0
POLYLINE
  5
380
  8
0
 66
     1
 10
0.0
 20
0.0
 30
0.0
 70
     1
  0
VERTEX
  5
9F2
  8
0
 10
0.0
 20
0.0
 30
0.0
  0
VERTEX
  5
9F3
  8
0
 10
0.0
 20
36.000050000000002
 30
0.0
  0
VERTEX
  5
9F4
  8
0
 10
30.0
 20
36.000050000000002
 30
0.0
  0
VERTEX
  5
9F5
  8
0
 10
30.0
 20
0.0
 30
0.0
  0
SEQEND
  5
9F6
  8
0
  0
ENDBLK
  5
382
  8
0
  0
BLOCK
  8
0
  2
HERD_-_76_CM_IN_DRAUFSICHT
 70
     2
 10
0.0
 20
0.0
 30
0.0
  3
HERD_-_76_CM_IN_DRAUFSICHT
  1
RANGE_30_INCH_TOP
  0
CIRCLE
  5
38A
  8
0
 10
24.0
 20
-9.0000001999999988
 30
0.0
 40
1.0
  0
LINE
  5
38B
  8
0
 10
12.0
 20
-6.0
 30
0.0
 11
18.0
 21
-6.0
 31
0.0
  0
CIRCLE
  5
38C
  8
0
 10
6.0000000000000018
 20
-9.0000001999999988
 30
0.0
 40
1.0
  0
LINE
  5
38D
  8
0
 10
0.0
 20
-3.0
 30
0.0
 11
30.0
 21
-3.0
 31
0.0
  0
CIRCLE
  5
38E
  8
0
 10
24.0
 20
-18.0
 30
0.0
 40
4.0
  0
CIRCLE
  5
38F
  8
0
 10
24.0
 20
-18.0
 30
0.0
 40
3.0
  0
CIRCLE
  5
390
  8
0
 10
24.0
 20
-18.0
 30
0.0
 40
2.0
  0
CIRCLE
  5
391
  8
0
 10
24.0
 20
-18.0
 30
0.0
 40
1.0
  0
LINE
  5
392
  8
0
 10
22.0
 20
-24.999995999999999
 30
0.0
 11
22.0
 21
-23.999995999999999
 31
0.0
  0
LINE
  5
393
  8
0
 10
24.0
 20
-23.999995999999999
 30
0.0
 11
24.0
 21
-24.999995999999999
 31
0.0
  0
LINE
  5
394
  8
0
 10
18.0
 20
-19.999995999999989
 30
0.0
 11
12.0
 21
-19.999995999999989
 31
0.0
  0
LINE
  5
395
  8
0
 10
8.0000000000000018
 20
-24.999995999999999
 30
0.0
 11
8.0000000000000018
 21
-23.999995999999999
 31
0.0
  0
CIRCLE
  5
396
  8
0
 10
6.0000000000000018
 20
-18.0
 30
0.0
 40
1.0
  0
LINE
  5
397
  8
0
 10
6.0000000000000018
 20
-23.999995999999999
 30
0.0
 11
6.0000000000000018
 21
-24.999995999999999
 31
0.0
  0
POLYLINE
  5
398
  8
0
 66
     1
 10
0.0
 20
0.0
 30
0.0
 70
     1
  0
VERTEX
  5
9F9
  8
0
 10
2.0000000000000031
 20
-25.999995999999999
 30
0.0
  0
VERTEX
  5
9FA
  8
0
 10
2.0000000000000031
 20
-24.999995999999999
 30
0.0
  0
VERTEX
  5
9FB
  8
0
 10
28.0
 20
-24.999995999999999
 30
0.0
  0
VERTEX
  5
9FC
  8
0
 10
28.0
 20
-25.999995999999999
 30
0.0
  0
SEQEND
  5
9FD
  8
0
  0
CIRCLE
  5
399
  8
0
 10
6.0000000000000018
 20
-18.0
 30
0.0
 40
3.0
  0
CIRCLE
  5
39A
  8
0
 10
6.0000000000000018
 20
-18.0
 30
0.0
 40
2.0
  0
LINE
  5
39B
  8
0
 10
17.0
 20
-19.999995999999989
 30
0.0
 11
17.0
 21
-6.0
 31
0.0
  0
LINE
  5
39C
  8
0
 10
16.0
 20
-6.0
 30
0.0
 11
16.0
 21
-19.999995999999989
 31
0.0
  0
LINE
  5
39D
  8
0
 10
15.0
 20
-19.999995999999989
 30
0.0
 11
15.0
 21
-6.0
 31
0.0
  0
LINE
  5
39E
  8
0
 10
14.0
 20
-6.0
 30
0.0
 11
14.0
 21
-19.999995999999989
 31
0.0
  0
LINE
  5
39F
  8
0
 10
13.0
 20
-19.999995999999989
 30
0.0
 11
13.0
 21
-6.0
 31
0.0
  0
POLYLINE
  5
3A0
  8
0
 66
     1
 10
0.0
 20
0.0
 30
0.0
 70
     1
  0
VERTEX
  5
9FE
  8
0
 10
12.0
 20
-20.999995999999989
 30
0.0
  0
VERTEX
  5
9FF
  8
0
 10
12.0
 20
-5.0
 30
0.0
  0
VERTEX
  5
A00
  8
0
 10
18.0
 20
-5.0
 30
0.0
  0
VERTEX
  5
A01
  8
0
 10
18.0
 20
-20.999995999999989
 30
0.0
  0
SEQEND
  5
A02
  8
0
  0
CIRCLE
  5
3A1
  8
0
 10
24.0
 20
-9.0000001999999988
 30
0.0
 40
3.0
  0
CIRCLE
  5
3A2
  8
0
 10
24.0
 20
-9.0000001999999988
 30
0.0
 40
2.0
  0
CIRCLE
  5
3A3
  8
0
 10
6.0000000000000018
 20
-9.0000001999999988
 30
0.0
 40
4.0
  0
CIRCLE
  5
3A4
  8
0
 10
6.0000000000000018
 20
-9.0000001999999988
 30
0.0
 40
3.0
  0
CIRCLE
  5
3A5
  8
0
 10
6.0000000000000018
 20
-9.0000001999999988
 30
0.0
 40
2.0
  0
POLYLINE
  5
3A6
  8
0
 66
     1
 10
0.0
 20
0.0
 30
0.0
 70
     1
  0
VERTEX
  5
A03
  8
0
 10
0.0
 20
-23.999995999999999
 30
0.0
  0
VERTEX
  5
A04
  8
0
 10
0.0
 20
0.0
 30
0.0
  0
VERTEX
  5
A05
  8
0
 10
30.0
 20
0.0
 30
0.0
  0
VERTEX
  5
A06
  8
0
 10
30.0
 20
-23.999995999999999
 30
0.0
  0
SEQEND
  5
A07
  8
0
  0
ENDBLK
  5
3A8
  8
0
  0
BLOCK
  8
0
  2
HERDABZUGSHAUBE_-_76_CM_IN
 70
     2
 10
0.0
 20
0.0
 30
0.0
  3
HERDABZUGSHAUBE_-_76_CM_IN
  1
RANGE_HOOD_30_INCH_FRONT
  0
POLYLINE
  5
3B0
  8
0
 66
     1
 10
0.0
 20
0.0
 30
0.0
 70
     1
  0
VERTEX
  5
A0A
  8
0
 10
23.0
 20
-5.75
 30
0.0
  0
VERTEX
  5
A0B
  8
0
 10
23.0
 20
-4.25
 30
0.0
  0
VERTEX
  5
A0C
  8
0
 10
29.0
 20
-4.25
 30
0.0
  0
VERTEX
  5
A0D
  8
0
 10
29.0
 20
-5.75
 30
0.0
  0
SEQEND
  5
A0E
  8
0
  0
CIRCLE
  5
3B1
  8
0
 10
4.0
 20
-5.0
 30
0.0
 40
0.75
  0
CIRCLE
  5
3B2
  8
0
 10
2.0
 20
-5.0
 30
0.0
 40
0.75
  0
LINE
  5
3B3
  8
0
 10
0.0
 20
-4.0
 30
0.0
 11
30.000100000000199
 21
-4.0
 31
0.0
  0
POLYLINE
  5
3B4
  8
0
 66
     1
 10
0.0
 20
0.0
 30
0.0
 70
     1
  0
VERTEX
  5
A0F
  8
0
 10
0.0
 20
-6.0
 30
0.0
  0
VERTEX
  5
A10
  8
0
 10
0.0
 20
0.0
 30
0.0
  0
VERTEX
  5
A11
  8
0
 10
30.000100000000199
 20
0.0
 30
0.0
  0
VERTEX
  5
A12
  8
0
 10
30.000100000000199
 20
-6.0
 30
0.0
  0
SEQEND
  5
A13
  8
0
  0
ENDBLK
  5
3B6
  8
0
  0
BLOCK
  8
0
  2
KÜHLSCHRANK_-_ZWEITÜRIGER_
 70
     2
 10
0.0
 20
0.0
 30
0.0
  3
KÜHLSCHRANK_-_ZWEITÜRIGER_
  1
REFRIGERATOR_2_DOOR_36_INCH_FRT
  0
POLYLINE
  5
3BE
  8
0
 66
     1
 10
0.0
 20
0.0
 30
0.0
 70
     1
  0
VERTEX
  5
A16
  8
0
 10
11.0
 20
36.0
 30
0.0
  0
VERTEX
  5
A17
  8
0
 10
11.0
 20
52.000000000000007
 30
0.0
  0
VERTEX
  5
A18
  8
0
 10
13.0
 20
52.000000000000007
 30
0.0
  0
VERTEX
  5
A19
  8
0
 10
13.0
 20
36.0
 30
0.0
  0
SEQEND
  5
A1A
  8
0
  0
LINE
  5
3BF
  8
0
 10
12.0
 20
5.0
 30
0.0
 11
12.0
 21
64.0
 31
0.0
  0
POLYLINE
  5
3C0
  8
0
 66
     1
 10
0.0
 20
0.0
 30
0.0
 70
     1
  0
VERTEX
  5
A1B
  8
0
 10
0.0
 20
0.0
 30
0.0
  0
VERTEX
  5
A1C
  8
0
 10
0.0
 20
64.0
 30
0.0
  0
VERTEX
  5
A1D
  8
0
 10
36.0
 20
64.0
 30
0.0
  0
VERTEX
  5
A1E
  8
0
 10
36.0
 20
0.0
 30
0.0
  0
SEQEND
  5
A1F
  8
0
  0
LINE
  5
3C1
  8
0
 10
0.0
 20
5.0
 30
0.0
 11
36.0
 21
5.0
 31
0.0
  0
ENDBLK
  5
3C3
  8
0
  0
BLOCK
  8
0
  2
KÜHLSCHRANK_-_ZWEITÜRIGER0
 70
     2
 10
0.0
 20
0.0
 30
0.0
  3
KÜHLSCHRANK_-_ZWEITÜRIGER0
  1
REFRIGERATOR_2_DOOR_36_INCH_TOP
  0
LINE
  5
3CB
  8
0
 10
12.0
 20
-26.999998999999988
 30
0.0
 11
12.0
 21
-28.999998999999999
 31
0.0
  0
LINE
  5
3CC
  8
0
 10
13.0
 20
-28.999998999999999
 30
0.0
 11
13.0
 21
-27.999998999999988
 31
0.0
  0
LINE
  5
3CD
  8
0
 10
11.0
 20
-28.999998999999999
 30
0.0
 11
13.0
 21
-28.999998999999999
 31
0.0
  0
LINE
  5
3CE
  8
0
 10
11.0
 20
-27.999998999999988
 30
0.0
 11
11.0
 21
-28.999998999999999
 31
0.0
  0
LINE
  5
3CF
  8
0
 10
0.0
 20
-26.999998999999988
 30
0.0
 11
36.0
 21
-26.999998999999988
 31
0.0
  0
POLYLINE
  5
3D0
  8
0
 66
     1
 10
0.0
 20
0.0
 30
0.0
 70
     1
  0
VERTEX
  5
A22
  8
0
 10
0.0
 20
-27.999998999999988
 30
0.0
  0
VERTEX
  5
A23
  8
0
 10
0.0
 20
0.0
 30
0.0
  0
VERTEX
  5
A24
  8
0
 10
36.0
 20
0.0
 30
0.0
  0
VERTEX
  5
A25
  8
0
 10
36.0
 20
-27.999998999999988
 30
0.0
  0
SEQEND
  5
A26
  8
0
  0
ENDBLK
  5
3D2
  8
0
  0
BLOCK
  8
0
  2
SPÜLE_-_DOPPELSPÜLE_MIT_91
 70
     2
 10
0.0
 20
0.0
 30
0.0
  3
SPÜLE_-_DOPPELSPÜLE_MIT_91
  1
SINK_DOUBLE_36_INCH_TOP
  0
ARC
  5
3DA
  8
0
 10
15.5
 20
-6.5
 30
0.0
 40
1.0
 50
0.0
 51
90.0
  0
ARC
  5
3DB
  8
0
 10
16.5
 20
-1.5
 30
0.0
 40
1.5
 50
0.0
 51
90.0
  0
CIRCLE
  5
3DC
  8
0
 10
8.5
 20
-12.5
 30
0.0
 40
0.5
  0
CIRCLE
  5
3DD
  8
0
 10
8.5
 20
-12.5
 30
0.0
 40
1.0
  0
ARC
  5
3DE
  8
0
 10
15.5
 20
-18.5
 30
0.0
 40
1.0
 50
270.0
 51
0.0
  0
ARC
  5
3DF
  8
0
 10
16.5
 20
-19.5
 30
0.0
 40
1.5
 50
270.0
 51
0.0
  0
POLYLINE
  5
3E0
  8
0
 66
     1
 10
0.0
 20
0.0
 30
0.0
  0
VERTEX
  5
A29
  8
0
 10
16.5
 20
-6.5
 30
0.0
  0
VERTEX
  5
A2A
  8
0
 10
16.5
 20
-18.5
 30
0.0
  0
SEQEND
  5
A2B
  8
0
  0
POLYLINE
  5
3E1
  8
0
 66
     1
 10
0.0
 20
0.0
 30
0.0
  0
VERTEX
  5
A2C
  8
0
 10
18.0
 20
-1.5
 30
0.0
  0
VERTEX
  5
A2D
  8
0
 10
18.0
 20
-19.5
 30
0.0
  0
SEQEND
  5
A2E
  8
0
  0
ARC
  5
3E2
  8
0
 10
1.75
 20
-6.5
 30
0.0
 40
1.0
 50
90.0
 51
180.0
  0
ARC
  5
3E3
  8
0
 10
-1.75
 20
-6.5
 30
0.0
 40
1.0
 50
0.0
 51
90.0
  0
ARC
  5
3E4
  8
0
 10
-15.5
 20
-6.5
 30
0.0
 40
1.0
 50
90.0
 51
180.0
  0
ARC
  5
3E5
  8
0
 10
-16.5
 20
-1.5
 30
0.0
 40
1.5
 50
90.0
 51
180.0
  0
POLYLINE
  5
3E6
  8
0
 66
     1
 10
0.0
 20
0.0
 30
0.0
  0
VERTEX
  5
A2F
  8
0
 10
-15.5
 20
-5.5
 30
0.0
  0
VERTEX
  5
A30
  8
0
 10
-1.75
 20
-5.5
 30
0.0
  0
SEQEND
  5
A31
  8
0
  0
ARC
  5
3E7
  8
0
 10
1.75
 20
-18.5
 30
0.0
 40
1.0
 50
180.0
 51
270.0
  0
ARC
  5
3E8
  8
0
 10
-1.75
 20
-18.5
 30
0.0
 40
1.0
 50
270.0
 51
0.0
  0
CIRCLE
  5
3E9
  8
0
 10
-8.5
 20
-12.5
 30
0.0
 40
0.5
  0
CIRCLE
  5
3EA
  8
0
 10
-8.5
 20
-12.5
 30
0.0
 40
1.0
  0
ARC
  5
3EB
  8
0
 10
-15.5
 20
-18.5
 30
0.0
 40
1.0
 50
180.0
 51
270.0
  0
ARC
  5
3EC
  8
0
 10
-16.5
 20
-19.5
 30
0.0
 40
1.5
 50
180.0
 51
270.0
  0
POLYLINE
  5
3ED
  8
0
 66
     1
 10
0.0
 20
0.0
 30
0.0
  0
VERTEX
  5
A32
  8
0
 10
-1.75
 20
-19.5
 30
0.0
  0
VERTEX
  5
A33
  8
0
 10
-15.5
 20
-19.5
 30
0.0
  0
SEQEND
  5
A34
  8
0
  0
POLYLINE
  5
3EE
  8
0
 66
     1
 10
0.0
 20
0.0
 30
0.0
  0
VERTEX
  5
A35
  8
0
 10
-16.5
 20
-18.5
 30
0.0
  0
VERTEX
  5
A36
  8
0
 10
-16.5
 20
-6.5
 30
0.0
  0
SEQEND
  5
A37
  8
0
  0
POLYLINE
  5
3EF
  8
0
 66
     1
 10
0.0
 20
0.0
 30
0.0
  0
VERTEX
  5
A38
  8
0
 10
-18.0
 20
-19.5
 30
0.0
  0
VERTEX
  5
A39
  8
0
 10
-18.0
 20
-1.5
 30
0.0
  0
SEQEND
  5
A3A
  8
0
  0
LINE
  5
3F0
  8
0
 10
0.75
 20
-6.5
 30
0.0
 11
0.75
 21
-18.5
 31
0.0
  0
LINE
  5
3F1
  8
0
 10
-0.75
 20
-18.5
 30
0.0
 11
-0.75
 21
-6.5
 31
0.0
  0
POLYLINE
  5
3F2
  8
0
 66
     1
 10
0.0
 20
0.0
 30
0.0
  0
VERTEX
  5
A3B
  8
0
 10
16.5
 20
-21.0
 30
0.0
  0
VERTEX
  5
A3C
  8
0
 10
-16.5
 20
-21.0
 30
0.0
  0
SEQEND
  5
A3D
  8
0
  0
POLYLINE
  5
3F3
  8
0
 66
     1
 10
0.0
 20
0.0
 30
0.0
  0
VERTEX
  5
A3E
  8
0
 10
-16.5
 20
0.0
 30
0.0
  0
VERTEX
  5
A3F
  8
0
 10
16.5
 20
0.0
 30
0.0
  0
SEQEND
  5
A40
  8
0
  0
LINE
  5
3F4
  8
0
 10
-18.0
 20
-4.0
 30
0.0
 11
18.0
 21
-4.0
 31
0.0
  0
POLYLINE
  5
3F5
  8
0
 66
     1
 10
0.0
 20
0.0
 30
0.0
  0
VERTEX
  5
A41
  8
0
 10
1.75
 20
-5.5
 30
0.0
  0
VERTEX
  5
A42
  8
0
 10
15.5
 20
-5.5
 30
0.0
  0
SEQEND
  5
A43
  8
0
  0
POLYLINE
  5
3F6
  8
0
 66
     1
 10
0.0
 20
0.0
 30
0.0
  0
VERTEX
  5
A44
  8
0
 10
15.5
 20
-19.5
 30
0.0
  0
VERTEX
  5
A45
  8
0
 10
1.75
 20
-19.5
 30
0.0
  0
SEQEND
  5
A46
  8
0
  0
ENDBLK
  5
3F8
  8
0
  0
BLOCK
  8
0
  2
SPÜLE_-_EINZELSPÜLE_MIT_76
 70
     2
 10
0.0
 20
0.0
 30
0.0
  3
SPÜLE_-_EINZELSPÜLE_MIT_76
  1
SINK_SINGLE_30_INCH_TOP
  0
ARC
  5
400
  8
0
 10
12.5
 20
-6.4999960000000012
 30
0.0
 40
1.0
 50
0.0
 51
90.0
  0
ARC
  5
401
  8
0
 10
-12.5
 20
-6.4999960000000012
 30
0.0
 40
1.0
 50
90.0
 51
180.0
  0
CIRCLE
  5
402
  8
0
 10
0.0
 20
-11.999995999999999
 30
0.0
 40
0.5
  0
CIRCLE
  5
403
  8
0
 10
0.0
 20
-11.999995999999999
 30
0.0
 40
1.0
  0
POLYLINE
  5
404
  8
0
 66
     1
 10
0.0
 20
0.0
 30
0.0
  0
VERTEX
  5
A49
  8
0
 10
-12.5
 20
-5.4999960000000012
 30
0.0
  0
VERTEX
  5
A4A
  8
0
 10
12.5
 20
-5.4999960000000012
 30
0.0
  0
SEQEND
  5
A4B
  8
0
  0
ARC
  5
405
  8
0
 10
12.5
 20
-17.499995999999989
 30
0.0
 40
1.0
 50
270.0
 51
0.0
  0
ARC
  5
406
  8
0
 10
13.5
 20
-18.499995999999999
 30
0.0
 40
1.5
 50
270.0
 51
0.0
  0
ARC
  5
407
  8
0
 10
-12.5
 20
-17.499995999999989
 30
0.0
 40
1.0
 50
180.0
 51
270.0
  0
ARC
  5
408
  8
0
 10
-13.5
 20
-18.499995999999999
 30
0.0
 40
1.5
 50
180.0
 51
270.0
  0
POLYLINE
  5
409
  8
0
 66
     1
 10
0.0
 20
0.0
 30
0.0
  0
VERTEX
  5
A4C
  8
0
 10
13.5
 20
-19.999995999999989
 30
0.0
  0
VERTEX
  5
A4D
  8
0
 10
-13.5
 20
-19.999995999999989
 30
0.0
  0
SEQEND
  5
A4E
  8
0
  0
POLYLINE
  5
40A
  8
0
 66
     1
 10
0.0
 20
0.0
 30
0.0
  0
VERTEX
  5
A4F
  8
0
 10
12.5
 20
-18.499995999999999
 30
0.0
  0
VERTEX
  5
A50
  8
0
 10
-12.5
 20
-18.499995999999999
 30
0.0
  0
SEQEND
  5
A51
  8
0
  0
POLYLINE
  5
40B
  8
0
 66
     1
 10
0.0
 20
0.0
 30
0.0
  0
VERTEX
  5
A52
  8
0
 10
-13.5
 20
-17.499995999999989
 30
0.0
  0
VERTEX
  5
A53
  8
0
 10
-13.5
 20
-6.4999960000000012
 30
0.0
  0
SEQEND
  5
A54
  8
0
  0
POLYLINE
  5
40C
  8
0
 66
     1
 10
0.0
 20
0.0
 30
0.0
  0
VERTEX
  5
A55
  8
0
 10
13.5
 20
-6.4999960000000012
 30
0.0
  0
VERTEX
  5
A56
  8
0
 10
13.5
 20
-17.499995999999989
 30
0.0
  0
SEQEND
  5
A57
  8
0
  0
ARC
  5
40D
  8
0
 10
13.5
 20
-1.5
 30
0.0
 40
1.5
 50
0.0
 51
90.0
  0
POLYLINE
  5
40E
  8
0
 66
     1
 10
0.0
 20
0.0
 30
0.0
  0
VERTEX
  5
A58
  8
0
 10
15.0
 20
-1.5
 30
0.0
  0
VERTEX
  5
A59
  8
0
 10
15.0
 20
-18.499995999999999
 30
0.0
  0
SEQEND
  5
A5A
  8
0
  0
ARC
  5
40F
  8
0
 10
-13.5
 20
-1.5
 30
0.0
 40
1.5
 50
90.0
 51
180.0
  0
POLYLINE
  5
410
  8
0
 66
     1
 10
0.0
 20
0.0
 30
0.0
  0
VERTEX
  5
A5B
  8
0
 10
-15.0
 20
-18.499995999999999
 30
0.0
  0
VERTEX
  5
A5C
  8
0
 10
-15.0
 20
-1.5
 30
0.0
  0
SEQEND
  5
A5D
  8
0
  0
POLYLINE
  5
411
  8
0
 66
     1
 10
0.0
 20
0.0
 30
0.0
  0
VERTEX
  5
A5E
  8
0
 10
-13.5
 20
0.0
 30
0.0
  0
VERTEX
  5
A5F
  8
0
 10
13.5
 20
0.0
 30
0.0
  0
SEQEND
  5
A60
  8
0
  0
LINE
  5
412
  8
0
 10
-15.0
 20
-3.9999960000000012
 30
0.0
 11
15.0
 21
-3.9999960000000012
 31
0.0
  0
ENDBLK
  5
414
  8
0
  0
BLOCK
  8
0
  2
LICHTSCHALTER_-_DOPPELSCHA
 70
     2
 10
0.0
 20
0.0
 30
0.0
  3
LICHTSCHALTER_-_DOPPELSCHA
  1
SWITCH_DOUBLE
  0
POLYLINE
  5
41C
  8
0
 66
     1
 10
0.0
 20
0.0
 30
0.0
  0
VERTEX
  5
A63
  8
0
 10
-0.7818000000000041
 20
3.0
 30
0.0
  0
VERTEX
  5
A64
  8
0
 10
-0.75
 20
3.0
 30
0.0
  0
VERTEX
  5
A65
  8
0
 10
-0.75
 20
2.0
 30
0.0
  0
VERTEX
  5
A66
  8
0
 10
-1.25
 20
2.0
 30
0.0
  0
VERTEX
  5
A67
  8
0
 10
-1.25
 20
3.0
 30
0.0
  0
VERTEX
  5
A68
  8
0
 10
-1.221900000000004
 20
3.0
 30
0.0
  0
SEQEND
  5
A69
  8
0
  0
LINE
  5
41D
  8
0
 10
-0.7854000000000099
 20
2.5
 30
0.0
 11
-1.2182999999999991
 21
2.5
 31
0.0
  0
POLYLINE
  5
41E
  8
0
 66
     1
 10
0.0
 20
0.0
 30
0.0
 70
     1
  0
VERTEX
  5
A6A
  8
0
 10
-0.7800000000000013
 20
3.125
 30
0.0
  0
VERTEX
  5
A6B
  8
0
 10
-0.7800000000000013
 20
2.0
 30
0.0
  0
VERTEX
  5
A6C
  8
0
 10
-1.2199999999999971
 20
2.0
 30
0.0
  0
VERTEX
  5
A6D
  8
0
 10
-1.2199999999999971
 20
3.125
 30
0.0
  0
SEQEND
  5
A6E
  8
0
  0
LINE
  5
41F
  8
0
 10
-0.875
 20
4.0
 30
0.0
 11
-1.125
 21
4.0
 31
0.0
  0
CIRCLE
  5
420
  8
0
 10
-1.0
 20
4.0
 30
0.0
 40
0.125
  0
LINE
  5
421
  8
0
 10
-0.875
 20
1.0
 30
0.0
 11
-1.125
 21
1.0
 31
0.0
  0
CIRCLE
  5
422
  8
0
 10
-1.0
 20
1.0
 30
0.0
 40
0.125
  0
POLYLINE
  5
423
  8
0
 66
     1
 10
0.0
 20
0.0
 30
0.0
  0
VERTEX
  5
A6F
  8
0
 10
0.781700000000001
 20
2.0
 30
0.0
  0
VERTEX
  5
A70
  8
0
 10
0.75
 20
2.0
 30
0.0
  0
VERTEX
  5
A71
  8
0
 10
0.75
 20
3.0
 30
0.0
  0
VERTEX
  5
A72
  8
0
 10
1.25
 20
3.0
 30
0.0
  0
VERTEX
  5
A73
  8
0
 10
1.25
 20
2.0
 30
0.0
  0
VERTEX
  5
A74
  8
0
 10
1.2218999999999749
 20
2.0
 30
0.0
  0
SEQEND
  5
A75
  8
0
  0
LINE
  5
424
  8
0
 10
0.7853999999999815
 20
2.5
 30
0.0
 11
1.2181999999999951
 21
2.5
 31
0.0
  0
POLYLINE
  5
425
  8
0
 66
     1
 10
0.0
 20
0.0
 30
0.0
 70
     1
  0
VERTEX
  5
A76
  8
0
 10
0.7800000000000013
 20
1.875
 30
0.0
  0
VERTEX
  5
A77
  8
0
 10
0.7800000000000013
 20
3.0
 30
0.0
  0
VERTEX
  5
A78
  8
0
 10
1.2199999999999971
 20
3.0
 30
0.0
  0
VERTEX
  5
A79
  8
0
 10
1.2199999999999971
 20
1.875
 30
0.0
  0
SEQEND
  5
A7A
  8
0
  0
LINE
  5
426
  8
0
 10
0.875
 20
1.0
 30
0.0
 11
1.125
 21
1.0
 31
0.0
  0
CIRCLE
  5
427
  8
0
 10
1.0
 20
1.0
 30
0.0
 40
0.125
  0
LINE
  5
428
  8
0
 10
0.875
 20
4.0
 30
0.0
 11
1.125
 21
4.0
 31
0.0
  0
CIRCLE
  5
429
  8
0
 10
1.0
 20
4.0
 30
0.0
 40
0.125
  0
LINE
  5
42A
  8
0
 10
2.25
 20
0.25
 30
0.0
 11
2.5
 21
0.0
 31
0.0
  0
LINE
  5
42B
  8
0
 10
2.25
 20
4.75
 30
0.0
 11
2.5
 21
5.0
 31
0.0
  0
LINE
  5
42C
  8
0
 10
2.25
 20
0.25
 30
0.0
 11
-2.25
 21
0.25
 31
0.0
  0
LINE
  5
42D
  8
0
 10
2.25
 20
4.75
 30
0.0
 11
2.25
 21
0.25
 31
0.0
  0
LINE
  5
42E
  8
0
 10
-2.25
 20
4.75
 30
0.0
 11
2.25
 21
4.75
 31
0.0
  0
POLYLINE
  5
42F
  8
0
 66
     1
 10
0.0
 20
0.0
 30
0.0
 70
     1
  0
VERTEX
  5
A7B
  8
0
 10
-2.5
 20
0.0
 30
0.0
  0
VERTEX
  5
A7C
  8
0
 10
-2.5
 20
5.0
 30
0.0
  0
VERTEX
  5
A7D
  8
0
 10
2.5
 20
5.0
 30
0.0
  0
VERTEX
  5
A7E
  8
0
 10
2.5
 20
0.0
 30
0.0
  0
SEQEND
  5
A7F
  8
0
  0
LINE
  5
430
  8
0
 10
-2.25
 20
4.75
 30
0.0
 11
-2.5
 21
5.0
 31
0.0
  0
LINE
  5
431
  8
0
 10
-2.25
 20
0.25
 30
0.0
 11
-2.5
 21
0.0
 31
0.0
  0
LINE
  5
432
  8
0
 10
-2.25
 20
0.25
 30
0.0
 11
-2.25
 21
4.75
 31
0.0
  0
ENDBLK
  5
434
  8
0
  0
BLOCK
  8
0
  2
HÄNGESCHRANK_-_46_X_30_CM_
 70
     2
 10
0.0
 20
0.0
 30
0.0
  3
HÄNGESCHRANK_-_46_X_30_CM_
  1
WALL_CABINET_18X12_SIDE
  0
POLYLINE
  5
43C
  8
0
 66
     1
 10
0.0
 20
0.0
 30
0.0
 70
     1
  0
VERTEX
  5
A82
  8
0
 10
-13.0
 20
-16.5
 30
0.0
  0
VERTEX
  5
A83
  8
0
 10
-13.0
 20
-1.5
 30
0.0
  0
VERTEX
  5
A84
  8
0
 10
-12.5
 20
-1.5
 30
0.0
  0
VERTEX
  5
A85
  8
0
 10
-12.5
 20
-16.5
 30
0.0
  0
SEQEND
  5
A86
  8
0
  0
POLYLINE
  5
43D
  8
0
 66
     1
 10
0.0
 20
0.0
 30
0.0
 70
     1
  0
VERTEX
  5
A87
  8
0
 10
-12.0
 20
-18.0
 30
0.0
  0
VERTEX
  5
A88
  8
0
 10
-12.0
 20
0.0
 30
0.0
  0
VERTEX
  5
A89
  8
0
 10
0.0
 20
0.0
 30
0.0
  0
VERTEX
  5
A8A
  8
0
 10
0.0
 20
-18.0
 30
0.0
  0
SEQEND
  5
A8B
  8
0
  0
ENDBLK
  5
43F
  8
0
  0
BLOCK
  8
0
  2
HÄNGESCHRANK_-_46_X_91_CM_
 70
     2
 10
0.0
 20
0.0
 30
0.0
  3
HÄNGESCHRANK_-_46_X_91_CM_
  1
WALL_CABINET_18X36_FRONT
  0
LINE
  5
447
  8
0
 10
18.5
 20
-16.5
 30
0.0
 11
18.5
 21
-1.5
 31
0.0
  0
LINE
  5
448
  8
0
 10
17.5
 20
-1.5
 30
0.0
 11
17.5
 21
-16.5
 31
0.0
  0
POLYLINE
  5
449
  8
0
 66
     1
 10
0.0
 20
0.0
 30
0.0
  0
VERTEX
  5
A8E
  8
0
 10
18.5
 20
-1.5
 30
0.0
  0
VERTEX
  5
A8F
  8
0
 10
34.5
 20
-1.5
 30
0.0
  0
VERTEX
  5
A90
  8
0
 10
34.5
 20
-16.5
 30
0.0
  0
VERTEX
  5
A91
  8
0
 10
18.5
 20
-16.5
 30
0.0
  0
SEQEND
  5
A92
  8
0
  0
POLYLINE
  5
44A
  8
0
 66
     1
 10
0.0
 20
0.0
 30
0.0
  0
VERTEX
  5
A93
  8
0
 10
17.5
 20
-16.5
 30
0.0
  0
VERTEX
  5
A94
  8
0
 10
1.5
 20
-16.5
 30
0.0
  0
VERTEX
  5
A95
  8
0
 10
1.5
 20
-1.5
 30
0.0
  0
VERTEX
  5
A96
  8
0
 10
17.5
 20
-1.5
 30
0.0
  0
SEQEND
  5
A97
  8
0
  0
POLYLINE
  5
44B
  8
0
 66
     1
 10
0.0
 20
0.0
 30
0.0
 70
     1
  0
VERTEX
  5
A98
  8
0
 10
0.0
 20
-18.0
 30
0.0
  0
VERTEX
  5
A99
  8
0
 10
0.0
 20
0.0
 30
0.0
  0
VERTEX
  5
A9A
  8
0
 10
36.0
 20
0.0
 30
0.0
  0
VERTEX
  5
A9B
  8
0
 10
36.0
 20
-18.0
 30
0.0
  0
SEQEND
  5
A9C
  8
0
  0
ENDBLK
  5
44D
  8
0
  0
ENDSEC
  0
SECTION
  2
ENTITIES
  0
INSERT
  5
47
  8
0
  2
SCHRANK_-_SCHRANKTÜR_1_IN_
 10
24.331368346318101
 20
144.8344702039895
 30
0.0
  0
INSERT
  5
6E
  8
0
  2
SCHRANK_-_SCHRANKTÜR_1_MIT
 10
29.6830998410204
 20
145.04317761806359
 30
0.0
  0
INSERT
  5
AB
  8
0
  2
GESCHIRRSPÜLMASCHINE
 10
60.105710772110569
 20
145.04317761806359
 30
0.0
  0
INSERT
  5
E2
  8
0
  2
ARMATUR_-_KÜCHENARMATUR_IN
 10
98.54882786903454
 20
171.85263706733321
 30
0.0
  0
INSERT
  5
103
  8
0
  2
ARMATUR_-_KÜCHENARMATUR_I0
 10
99.378535322428206
 20
164.94298264937009
 30
0.0
  0
INSERT
  5
128
  8
0
  2
ARMATUR_-_EINHEBELMISCHER_
 10
119.2915171402322
 20
172.4054092157217
 30
0.0
  0
INSERT
  5
13B
  8
0
  2
ARMATUR_-_EINHEBELMISCHER0
 10
118.46180968683881
 20
164.6665965751759
 30
0.0
  0
INSERT
  5
19A
  8
0
  2
EIS-_UND_WASSERSPENDER
 10
132.56362930600071
 20
159.60502300407529
 30
0.0
  0
INSERT
  5
318
  8
0
  2
KÜCHENBLOCK_-_2100_X_2400_
 10
6.0898855669328213
 20
42.533505871986719
 30
0.0
  0
INSERT
  5
350
  8
0
  2
MIKROWELLENGERÄT
 10
122.4536224511608
 20
113.92970571603421
 30
0.0
  0
INSERT
  5
375
  8
0
  2
TELEFONSTECKDOSE
 10
156.63571516314519
 20
126.3204868920714
 30
0.0
  0
INSERT
  5
388
  8
0
  2
HERD_-_76_CM_IN_VORDERANSI
 10
168.3676038291764
 20
96.411705033417491
 30
0.0
  0
INSERT
  5
3AE
  8
0
  2
HERD_-_76_CM_IN_DRAUFSICHT
 10
204.1519799347677
 20
131.447706764809
 30
0.0
  0
INSERT
  5
3BC
  8
0
  2
HERDABZUGSHAUBE_-_76_CM_IN
 10
120.4058526729516
 20
81.884582426818653
 30
0.0
  0
INSERT
  5
3C9
  8
0
  2
KÜHLSCHRANK_-_ZWEITÜRIGER_
 10
164.4152973919943
 20
23.348823860774409
 30
0.0
  0
INSERT
  5
3D8
  8
0
  2
KÜHLSCHRANK_-_ZWEITÜRIGER0
 10
205.86108504018389
 20
87.011802299556436
 30
0.0
  0
INSERT
  5
3FE
  8
0
  2
SPÜLE_-_DOPPELSPÜLE_MIT_91
 10
20.53095125746756
 20
22.067018709510929
 30
0.0
  0
INSERT
  5
41A
  8
0
  2
SPÜLE_-_EINZELSPÜLE_MIT_76
 10
63.258567147448161
 20
22.494287215318121
 30
0.0
  0
INSERT
  5
43A
  8
0
  2
LICHTSCHALTER_-_DOPPELSCHA
 10
92.313346304997708
 20
17.794335482229481
 30
0.0
  0
INSERT
  5
445
  8
0
  2
HÄNGESCHRANK_-_46_X_30_CM_
 10
117.0953632862777
 20
20.785213924405522
 30
0.0
  0
INSERT
  5
453
  8
0
  2
HÄNGESCHRANK_-_46_X_91_CM_
 10
121.7954005643586
 20
20.785213924405522
 30
0.0
  0
ENDSEC
  0
EOF
